Song name
# A B C D E F G H I J K L M N O P Q R S T U V W X Y Z

Parkway Drive - Samsara tab

by Paul
briggsey_p@hotmail.com

Acoustic bit
Dropped D

e|-------------------------|
B|-------------------------|
G|-------------------------|
D|-------------10----------|
A|------8-7-8------8--7----|
D|-0-----------------------|


e|----------------------------------|
B|----------------------------------|
G|--------------------9-10-9--------|
D|-------------10-------------10-12-|
A|------8-7-8------8----------------|
D|-0--------------------------------|


fom what i cant tell the guys have tuned their guitars down to A now,


b |-------------------|
F#|-------------------|
D |-------------------|
A |-------------------|
E |-1-0---0----0--0---|
A |-1-0---0----0--0---|

i didnt have a chance to work out the specifics of the heavy bit, will update when i do
Tap to rate this tab
 
# A B C D E F G H I J K L M N O P Q R S T U V W X Y Z