Song name
# A B C D E F G H I J K L M N O P Q R S T U V W X Y Z

Parkway Drive - Samsara tab

			     Samsara - Parkway Drive
Tabbed by:Caleb P.

This is my first tab, ignore the standard tuning on the side, I'm pretty sure this 
is completely right. Drop A tuning from the Low E string to the High E is A E A D 
G F# b. I will also be tabbing Unrest by PWD too so check that out! Thanks.

Tuning:Drop A


B|---------------6-----------------------6---------------6/8-----------------| \
G|---------------------------------------------------------------------------|  \x6
D|-------8p7h8-------8---7-------8p7h8-------8-------------------------------|  /x6
A|---------------------------------------------------------------------------| /

  Distorted, palm muted.

B|---------------------------------------------------------------------------| \
G|---------------------------------------------------------------------------|  \x3
D|---0-0---0---0-0------0-0---0---0-0------1-1---1---1-1---3-3---3---3-3-----|  /x3
A|---0-0---0---0-0------0-0---0---0-0------1-1---1---1-1---3-3---3---3-3-----| /


| /   slide up
| \   slide down
| h   hammer-on
| p   pull-off
| ~   vibrato
| +   harmonic
| x   Mute note
| b   Bend
| pb  Pre-bend
| br  Bend release
| pbr Pre-bend release
| brb Bend release bend

Tap to rate this tab
# A B C D E F G H I J K L M N O P Q R S T U V W X Y Z