Parkway Drive - Samsara tab

Parkway Drive - Samsara
Tabbed by Uther Mott
Email, Trigger_time_11@hotmail.com
enjoy.

Clean
|--------------------------------------------------|
|------------------------------10h11---------------|
|--------12-----------------12------10/12----------|
|---8p7h8--8-7---------8p7h8--8--------------------|   x6
|--------------------------------------------------|
|--5------------------5----------------------------|

|--------------------------------------------------|
|--------------------------------------------------|
|--------12-----------------12---------------------|
|---8p7h8--8-7---------8p7h8--8--------------------|
|--------------------------------------------------|
|--5------------------5----------------------------|

Dirty       "Existence is suffereing!"
|--------------------------------------------------|
|--------------------------------------------------|
|--------------------------------------------------|
|--0-0-0-00---0-0-0-00---1-10-00-0-02-33-----------|  x4
|--0-0-0-00---0-0-0-00---1-11-11-3-33-33-----------|
|--0-0-0-00---0-0-0-00---1-11-11-3-33-33-----------|

|--------------------------------------------------|
|--------------------------------------------------|
|--------------------------------------------------|
|--0-0-0-00----------------------------------------|
|--0-0-0-00----------------------------------------|
|--0-0-0-00----------------------------------------|
Tap to rate this tab
 
# A B C D E F G H I J K L M N O P Q R S T U V W X Y Z