Song name
# A B C D E F G H I J K L M N O P Q R S T U V W X Y Z

Parkway Drive - Carrion tab

---------------------------------------------------------------------------------------|
-------------------------------------Parkway Drive-------------------------------------|
-----------------------------------------------------CARRION---------------------------|
---------------------------------------------------------------------------------------|

One of my favourite Parkway songs, just thought I would re-tab this song as most of the
out there are

only partly ot mostly correct. Mostly they feature most of the song right, then some of
is slightly out

of whack.

Thanks to Benny, for submitting the original tab, I also better reference where he got
from too, - Juz or

someone. Cheers Boys

Song is in Drop B. (B,F#,B,E,G#,C#) or (B,Gb,B,E,Ab,Db) Whatever floats your boat

Intro - Is distorted, contrary to popular belief. However, Jeff plays it clean live, but
the recording,

it is distorted.
Also it is using a chorus effect over the top. (If you are cheap, like me, and only have
practice amp and

no pedal, and you have a three-way toggle on your guitar, set it to the neck 
pickup, and have the volume

around 3-5 on the guitar, and full tone. when you want full distortion, flick it back to
bridge pick-

up. Havent tried this with a stratocaster, but it should be similar, providing you 
have a humbucker for

your bridge pick-up).


Something like this......

---------------------------------------------------------------------------------

Intro

     Jeff:

c#||-----------------------------------------------|
G#||-----------------------------------------------|
 E||-------5-----------------9---------9---9---7---|
 B||---3-------0----5---7---------5--5---5---5-----|
F#||---3-------0--------7---------5----------------|
 B||---3-------0--------7---------5----------------|
  ||
  || Luke:
  ||
c#||-----------------------------------------------|
G#||-----------------------------------------------|
 E||-----------------------------------9---9---7---|
 B||---3-------0--------7---------5--5---5---5-----|
F#||---3-------0--------7---------5----------------|
 B||---3-------0--------7---------5----------------|


     Jeff:

c#||-----------------------------------------------|
G#||-----------------------------------------------|
 E||-------5-----------------9-------9-------------|
 B||---3-------0----5---7---------5-----5----------|
F#||---3-------0--------7---------5----------------|
 B||---3-------0--------7---------5----------------|
  ||
  || Luke:
  ||
c#||-----------------------------------------------|
G#||-----------------------------------------------|
 E||---------------------------------9-------------|
 B||---3-------0--------7---------5----5-----------|
F#||---3-------0--------7---------5----------------|
 B||---3-------0--------7---------5----------------|

---------------------------------------------------------------|
---------------------------------------------------------------|

Verse: FUll distortion, selection 3 or 5 for pick-ups (bridge pick-up)

     Jeff:

c#||-----------------------------------------------------------|
G#||-----------------------------------------------------------|
 E||----5-4h5p4-------4---5---4------9-7h9p7-------5---9---7---|
 B||-3-----------0--5---5---5----7------------5--5---5---5-----| x2
F#||-3-----------0---------------7------------5----------------|
 B||-3-----------0---------------7------------5----------------|
  ||
  || Luke:
  ||
c#||-----------------------------------------------|
G#||-----------------------------------------------|
 E||-----------------------------------------------|
 B||---/3-------\0--------/12---------\0-----------| x2
F#||---/3-------\0--------/12---------\0-----------|
 B||---/3-------\0--------/12---------\0-----------|


     Jeff:

c#||-------------------------------------|
G#||-------------------------------------|
 E||-------------------------------------|
 B||---------------------------2h3p2-----|----- Luke repeats this after his first bit
F#||-8-----7---8-5--8---5---3--------3---|
 B||-0-0-0-0-0-0-0--0-0-0-0--------------|----- Play this twice more (both guitars)
PM||   . .   .        .   .
  ||
  || Luke:
  ||
c#||--------------------|
G#||--------------------|
 E||--------------------|
 B||---0---0---0--------|
F#||---0---0---0--------|
 B||---0---0---0--------|

     Jeff:

c#||--------------------------|
G#||--------------------------|
E ||--------------------------|
B ||-7-----7---7-3---------7--|
F#||-8-----8---8-5---------8--| x4
B ||-0-0-0-0-0-0-0---00000-8--|
PM||   . .   .       .. ..
  ||
  || Luke:
  ||
c#||--------------------------|
G#||--------------------------|
E ||--------------------------|
B ||-7-----7---7-3---------7--|
F#||-8-----8---8-5---------8--| x4
B ||-0-0-0-0-0-0-0---00000-8--|
PM||   . .   .       .. ..

C#||--------------------------------|on the
G#||--------------------------------|fourth time
E ||--------------------------------|don't play the b blat.
B ||-7-----7---7-3------------------|just play the artificial harmonic
F#||-8-----8---8-5----------8-------|of that chord as shown.
B ||-0-0-0-0-0-0-0---0-000----------|
PM||   . .   .       .. ..

     Jeff:

c#||-------------------------------------|
G#||-------------------------------------|
 E||-------------------------------------|
 B||---------------------------2h3p2-----|x3
F#||-8-----7---8-5--8---5---3--------3---|
 B||-0-0-0-0-0-0-0--0-0-0-0--------------|
  ||
  || Luke:
  ||
c#||-------------------------------------|
G#||-------------------------------------|
 E||-------------------------------------|
 B||---------------------------2h3p2-----|x3
F#||-8-----7---8-5--8---5---3--------3---|
 B||-0-0-0-0-0-0-0--0-0-0-0--------------|

----------------------------------------------------------------
 Chrous

     Jeff:

c#||-----------------------------------------------------------|
G#||-----------------------------------------------------------|
 E||----5-4h5p4-------4---5---4------9-7h9p7-------5---9---7---|
 B||-3-----------0--5---5---5----7------------5--5---5---5-----| x2
F#||-3-----------0---------------7------------5----------------|
 B||-3-----------0---------------7------------5----------------|
  ||
  || Luke:
  ||
c#||-----------------------------------------------|
G#||-----------------------------------------------|
 E||-----------------------------------------------|
 B||---/3-------\0--------/12---------\0-----------| x2
F#||---/3-------\0--------/12---------\0-----------|
 B||---/3-------\0--------/12---------\0-----------|

----------------------------------------

Verse:

     Jeff:

c#||--------------------------|
G#||--------------------------|
E ||--------------------------|
B ||-7-----7---7-3---------7--|
F#||-8-----8---8-5---------8--| x4
B ||-0-0-0-0-0-0-0---00000-8--|
PM||   . .   .       .. ..
  ||
  || Luke:
  ||
c#||--------------------------|
G#||--------------------------|
E ||--------------------------|
B ||-7-----7---7-3---------7--|
F#||-8-----8---8-5---------8--| x4
B ||-0-0-0-0-0-0-0---00000-8--|
PM     . .   .       .. ..
     Jeff:

c#||--------------------------------------------------|
G#||--------------------------------------------------|
 E||-12-12-12-12-10-10-10-10--9--9--9--9--7--7--7--7--|
 B||-12-12-12-12-12-12-12-12-12-12-12-12-12-12-12-12--|
F#||--------------------------------------------------|
 B||--------------------------------------------------|
  ||
  || Luke:
  ||
c#||--------------------------------------------------|
G#||--------------------------------------------------|
 E||--------------------------------------------------|
 B||--------------------------------------------------|
F#||--------------------------------------------------|
 B||--------------------------------------------------|


    Jeff:

c#||--------------------------------------------------|
G#||--------------------------------------------------|
 E||-12-12-12-12-10-10-10-10--9--9--9--9--7--7--7--7--|
 B||-12-12-12-12-12-12-12-12-12-12-12-12-12-12-12-12--|
F#||--------------------------------------------------|
 B||--------------------------------------------------|
  ||
  || Luke:
  ||
c#||--------------------------------------------------|
G#||--------------------------------------------------|
 E||-12-12-12-12-10-10-10-10--9--9--9--9--7--7--7--7--|
 B||-12-12-12-12-12-12-12-12-12-12-12-12-12-12-12-12--|
F#||--------------------------------------------------|
 B||--------------------------------------------------|


---------------------------------------------------------

Solo type thing

 Not sure who plays what, here, but i think both of them play it....
From the PowerTab I have of this song, Luke plays a different bit

    Jeff:

c#||---------------------------------------------|
G#||---------------------------------------------|
 E||---------------------------------------------|
 B||---------------------------------------------|
F#||-8--8-8-7h8p7-5--3-5-5/7-7-7-5-7-7-10-8-7-5--| x2
 B||---------------------------------------------|
  ||
  || Luke - NOT SURE ABOUT THIS
  ||
c#||---------------------------------------------------------------|
G#||---------------------------------------------------------------|
 E||---------------------------------------------------------------|
 B||---------------------------------------------------------------|
F#||--3-----3---3-3--0~--0-0--0-0-0-0--7--7--7-7--5~--5-5--5-5-5-5-| x2
 B||--3-----3---3-3--0~--0-0--0-0-0-0--7--7--7-7--5~--5-5--5-5-5-5-|


Variation of Solo:

c#||-------------------------------------------------|
G#||-------------------------------------------------|
 E||-------------------------------------------------|
 B||-2h3-3-3p2--0-0-0---------0-2--2--0-2--5-3-2-0---|
F#||-------------------3-5-5-----------------------3-| x2
 B||-------------------------------------------------|

------------------------------------------------------------

Bridge - Intro

     Jeff:

c#||-----------------------------------------------------------|
G#||-----------------------------------------------------------|
 E||----5-4h5p4-------4---5---4------9-7h9p7-------5---9---7---|
 B||-3-----------0--5---5---5----7------------5--5---5---5-----| x2
F#||-3-----------0---------------7------------5----------------|
 B||-3-----------0---------------7------------5----------------|
  ||
  || Luke:
  ||
c#||-----------------------------------------------|
G#||-----------------------------------------------|
 E||-----------------------------------------------|
 B||---/3-------\0--------/12---------\0-----------| x2
F#||---/3-------\0--------/12---------\0-----------|
 B||---/3-------\0--------/12---------\0-----------|

---------------------------------------------------------------------------

Bridge - Main (all x2)
                  |
     Jeff         |
                  \/
c#||---------------------------------------------------------------------|
G#||---------------------------------------------------------------------|
 E||---------------------------------------------------------------------|
 B||-0h5h8p7---------0h5h8p7p5---------0h5h8/10---------8p7p5\3----------|
F#||---------------------------------------------------------------------|
 B||---------00-0-00-----------00-0-00----------00-0-00---------00-0-00--|
PM||         ..   ..           ..   ..          ..   ..         ..   ..
  || Luke
  ||
c#||---------------------------------------------------------------------|
G#||---------------------------------------------------------------------|
 E||---------------------------------------------------------------------|
 B||-0h5h8p7---------0h5h8p7p5---------0h5h8/10---------8p7p5\3----------|
F#||---------------------------------------------------------------------|
 B||---------00-0-00-----------00-0-00----------00-0-00---------00-0-00--|
PM         ..   ..           ..   ..          ..   ..         ..   ..

     Jeff

c#||------------------------------------------------------------------------|
G#||------------------------------------------------------------------------|
 E||------------------------------------------------------------------------|
 B||-0h5h8p7---------0h5h8p7p5---------0h5h8/10---------8p7p5-7-7--8-7-5-2--|
F#||----------------------------------------------------------8-8-10-8-7-3--|
 B||---------00-0-00-----------00-0-00----------00-0-00---------------------|
PM||         ..   ..           ..   ..          ..   ..
  || Luke
  ||
c#||------------------------------------------------------------------------|
G#||------------------------------------------------------------------------|
 E||------------------------------------------------------------------------|
 B||-0h5h8p7---------0h5h8p7p5---------0h5h8/10---------8p7p5-7-7--8-7-5-2--|
F#||----------------------------------------------------------8-8-10-8-7-3--|
 B||---------00-0-00-----------00-0-00----------00-0-00---------------------|
PM           ..   ..           ..   ..          ..   ..
-------------------------------------------------------------------------------

 Chrous

     Jeff:

c#||-----------------------------------------------------------|
G#||-----------------------------------------------------------|
 E||----5-4h5p4-------4---5---4------9-7h9p7-------5---9---7---|
 B||-3-----------0--5---5---5----7------------5--5---5---5-----|
F#||-3-----------0---------------7------------5----------------|
 B||-3-----------0---------------7------------5----------------|
  ||[________Just_Jeff________] [______Full_Band______________]
  ||
  || Luke:
  ||
c#||-----------------------------------------------|
G#||-----------------------------------------------|
 E||-----------------------------------------------|
 B||---/3-------\0--------/12---------\0-----------|
F#||---/3-------\0--------/12---------\0-----------|
 B||---/3-------\0--------/12---------\0-----------|

 Then on second round

     Jeff:

c#||-----------------------------------------------------------|
G#||-----------------------------------------------------------|
 E||----5-4h5p4-------4---5---4------9-7h9p7-------5---9---7---|
 B||-3-----------0--5---5---5----7------------5--5---5---5-----|
F#||-3-----------0---------------7------------5----------------|
 B||-3-----------0---------------7------------5----------------|
  ||
  || Luke:
  ||
c#||-----------------------------------------------|
G#||-----------------------------------------------|
 E||-----------------------------------------------|
 B||---/3-------\0--------/12---------\0-----------|
F#||---/3-------\0--------/12---------\0-----------|
 B||---/3-------\0--------/12---------\0-----------|

--------------------------------------------------------------------------------

Outro

     Jeff

c#||--------------------------------------------------------------------------------------|
G#||--------------------------------------------------------------------------------------|
 E||---5-5-5-5-5-5-5-5-7----7-7-7-7-7-7-7-7-9----9-9-9-9-9-9-9-9-10----7-7-7-7-7-7-7-7-9--|
 B||-3--------------------5--------------------7---------------------5--------------------|
F#||-3--------------------5--------------------7---------------------5--------------------|
 B||-3--------------------5--------------------7---------------------5--------------------|
  ||
  || Luke
  ||
c#||--------------------------------------------------------------------------------------|
G#||--------------------------------------------------------------------------------------|
 E||---5-5-5-5-5-5-5-5-7----7-7-7-7-7-7-7-7-9----9-9-9-9-9-9-9-9-10----7-7-7-7-7-7-7-7-9--|
 B||-3--------------------5--------------------7---------------------5--------------------|
F#||-3--------------------5--------------------7---------------------5--------------------|
 B||-3--------------------5--------------------7---------------------5--------------------|

     Jeff

c#||-------------------------------------------------------------------------------------|
G#||-------------------------------------------------------------------------------------|
 E||---5-5-5-5-5-5-5-5-7----7-7-7-7-7-7-7-7-9----4-4-4-4-4-4-4-4-5----2-2-2-2-2-2-2-2-4--|
 B||-3--------------------5--------------------0--------------------3--------------------|
F#||-3--------------------5--------------------0--------------------3--------------------|
 B||-3--------------------5--------------------0--------------------3--------------------|
  ||
  || Luke
  ||
c#||-------------------------------------------------------------------------------------|
G#||-------------------------------------------------------------------------------------|
 E||---5-5-5-5-5-5-5-5-7----7-7-7-7-7-7-7-7-9----4-4-4-4-4-4-4-4-5----2-2-2-2-2-2-2-2-4--|
 B||-3--------------------5--------------------0--------------------3--------------------|
F#||-3--------------------5--------------------0--------------------3--------------------|
 B||-3--------------------5--------------------0--------------------3--------------------|

Play this till fading out at the end of the song, not quite sure about this bit, but it
pretty right

And there you have it, :D

Legend:

|-----------------------------------|
| /      slide up                   |
| \      slide down                 |
| h      hammer-on                  |
| p      pull-off                   |
| ~      extend note                |
| -x-    artificial harmonic        |
| PM .   palm mute                  |
| +      harmonic                   |
| ^      vibrato                    |
|-----------------------------------|
Tap to rate this tab
 
# A B C D E F G H I J K L M N O P Q R S T U V W X Y Z