Parkway Drive - Wreckage tab

Wreckage
Parkway Drive

An easy song by Parkway for a change, off their new album Deep Blue. This 
is just for one guitar although guitar 2 does not change except
during the tapping solo and the end lead riff. Rep AUSTRALIA!

Drop B

Intro:
|--------------------|
|--------------------|
|--------------------|
|----7h8p7-----------|  x4
|--------------------|
|--0-------8-10------|

|----------------------------|
|----------------------------|
|----------------------------|
|----7h8p7---7h8p7----8p7----|  x4
|----------------------------|
|--0-------8-------10--------|

PAUSE!

Verse riff 1:
|-------------------------|     |------------------|
|-------------------------|     |------------------|
|-------------------------|     |------------------|
|------3-------3------3---| x3  |------3-------3---|
|--0--7-7--3--7-7--5---7--|     |--0--7-7--3--7-7--|
|--0-------3-------5------|     |--0-------3-------|


Verse riff 2:
|---------------------------------------------------|
|---------------------------------------------------|
|---------------------------------------------------|
|------------------------------------------------2--|
|----------7-0000-5-0-7-0000----------7-0000-7-0-3--|
|--0-5-8-7-7-0000-5-0-7-0000--0-5-8-7-7-0000-7-0----|
             ....   .   ....            ....   .    

|---------------------------------------------------------|
|---------------------------------------------------------|
|----------------------------------------------------5-9--|
|-------------------------------------------------2--x-x--|
|----------7-0000-7-0-5-0-77-0---------7-0000-7-0-3--3-7--| 
|--0-5-8-7-7-0000-7-0-5-0-77-0-0-5-8-7-7-0000-7-0---------| 
             ....   .   .    .           ....   .               

|---------------------------------------------------------|
|---------------------------------------------------------|
|---------------------------------------------------------|
|---------------------------------------2-----------------|
|--7-0000-5-0-7-0000---------7-0000-7-0-3---------7-0000--| 
|--7-0000-5-0-7-0000-0h5h8p7-7-0000-7-0---0h5h8p7-7-0000--|
     ....   .   ....           ....   .             ....

|------------------------------------------|
|------------------------------------------|
|------------------------------------------|
|----------------------------------2-------|
|--7-0-5-0-77-0---------7-0000-7-0-3--12\--|
|--7-0-5-0-77-0-0h5h8p7-7-0000-7-0----12\--|
     .   .    .           ....   .

Repeat Verse riff 1: x4

Verse riff 3:
|------------------------|
|------------------------|
|------------------------|
|-------7h8p7------------|  x4
|---000---------000------|
|---000-------8-000-10---|
    ...         ...
    
Bridge:
|----------------------------------------------------------------------|
|----------------------------------------------------------------------|
|----------------------------------------------------------------------|
|----------------------------------------------------------------------|
|-----------------------------------3333333333333333-5555555555555555--|
|--22222222222222222222222222222222------------------------------------|

|------------------------------------------------------------------|
|------------------------------------------------------------------|
|------------------------------------------------------------------|
|------------------------------------------------------------------|
|-----------------------------------3333333333333333-5555-5555-5\--|
|--22222222222222222222222222222222--------------------------------|
                                                     .... ....

Solo: Tapping (I have spaced out each note to read it more cleraly as all of the 
notes are pull-offs.) 3 bars x4

|-----------------------------------|
|--8p0-5p0-5p0-8p0-5p0-5p0-8p0-5p0--| x2
|-----------------------------------|
|-----------------------------------|
|-----------------------------------|
|-----------------------------------|

|--------------------------------------|
|--12p0-8p0-8p0-12p0-8p0-8p0-12p0-8p0--|
|--------------------------------------|
|--------------------------------------|
|--------------------------------------|
|--------------------------------------|

|--------------------------------------|
|--10p0-7p0-7p0-10p0-7p0-7p0-10p0-7p0--| ( On the fourth time playing
|--------------------------------------|  through, this bar is not played, 
|--------------------------------------|  instead F#|-5555-5555-5\- )
|--------------------------------------|
|--------------------------------------|

Verse riff 1: x4

Break:
|-----------------------------------------------------|
|-----------------------------------------------------|
|-----------------------------------------------------|
|-----------------------------------------------------|
|--0~-----------0~-----000-00-------------------------|
|--0~-----------0~-----000-00-------------------------|
                       ... ..
Verse riff 1: x4

End on:
|------|
|------|
|------|
|------|  
|--0~--|
|--0~--|		

(I don't know the lead riff)

Comment and rate!
Tap to rate this tab
 
# A B C D E F G H I J K L M N O P Q R S T U V W X Y Z