Parkway Drive - Emotional Breakdown tab

yer sup, this is the intro to emotional break down. the other versions are just terrible 
here u go.

INTRO

guitar 1

e-------------------|
B-------------------|
G-------------------|
D-------------------|
A---8---10---7---8--|
E-------------------|

guitar 2

e---------------------|
B---------------------|
G---------------------|
D---------------------|
A---------------------|
E---12---14---10---12-|

VERSE

e-------------------------------------|
B-------------------------------------|
G-------------------------------------|
D-------------------------------------|
A------12---10---8----7-------7---3h5-|
E--0-0----0----0----0---0-0-0---0-----|

and there u have it, the intro and the verse. thankyou
Tap to rate this tab
 
# A B C D E F G H I J K L M N O P Q R S T U V W X Y Z