Song name
# A B C D E F G H I J K L M N O P Q R S T U V W X Y Z

Parkway Drive - Home Is For The Heartless tab

This is my first guitar tab post. Mostly done by ear. These parts are not all in order. 
comment and rate! If you see anything wrong with it email me at Gxcaron@hotmail.com

Beganning
C#|----------------------------------------------------------------------|
G#|----------------------------------------------------------------------|
E |-----9------------7-----------7-----------5-----7---------------------|
B |----10-10-10-10---9-9-9-9-9---5-5-5-5-5---4-4---5---3~----------------|
F#|----------------------------------------------------3~----------------|
B |----------------------------------------------------3~----------------|
00:40     *  *  *      * * * *     * * * *     *

C#|----------------------------------------------|-----------------------|
G#|----------------------------------------------|-----------------------|
E |----------------------------------------------|---9-------10----------|
B |--------12--------14-----15--0-0-0--000--0-0--|-----10-7-----12-------|
F#|------8--------10--------12--0-0-0--000--0-0--|-----------------12----|
B |----8-------10--------12-----0-0-0--000--0-0--|-----------------------|
01:08                           * * *  ***  * *

C#|----------------------------------------------------------------------|
G#|----------------------------------------------------------------------|
E |-------------------------12-------------------------------------------|
B |---3~---9--5--9--7--10-9----9-10-7--9--5--9--7------------------------|
F#|---3~-----------------------------------------------------------------|
B |---3~-----------------------------------------------------------------|
01:49

C#|--12h5h7h8h5-x2-13h5h7h8h5-x2-15h5h7h8h5-x2---17h5h7h8h5-x2-----------|
G#|----------------------------------------------------------------------|
E |----------------------------------------------------------------------|
B |----------------------------------------------------------------------|
F#|----------------------------------------------------------------------|
B |----------------------------------------------------------------------|
02:02

C#|--17h5h7h8h5-x4-20h5h7h8h5-x4-19h5h7h8h5-x4-12h5h7h8h5-x4-------------|
G#|----------------------------------------------------------------------|
E |----------------------------------------------------------------------|
B |----------------------------------------------------------------------|
F#|----------------------------------------------------------------------|
B |----------------------------------------------------------------------|02:03 and 02:41

C#|----------------------------------------------------------------------|
G#|----------------------------------------------------------------------|
E |-------------------------14-------------------------------------------|
B |--3~--14-12-14-10--14-12----12-14-10--15-15----0-0--------------------|
F#|--3~----------------------------------12-12----0-0--------------------|
B |--3~-------------------------------------------0-0--------------------|
   04:09                                 *  *     * *
Tap to rate this tab
 
# A B C D E F G H I J K L M N O P Q R S T U V W X Y Z