Parkway Drive - Its Hard To Speak Without A Tounge tab

Note - This Is The Artist Work

Drop B - B F# B E G# C#

C#----------------|-----------------|-----------------|-----------------|
G#----------------|-----------------|-----------5-----|-----------------|
E ---------0------|-----------5-----|-------5-----5---|-----------5-----|
B -----7-----7----|-------8-----8-7-|---------------0-|-------5-----5---|
F#---8---8--------|-----5---5-------|-----0-----------|-----3---------3-|
B -8--------------|-5---------------|-0-------0-------|-3-------3-------|

C#----------------|-----------------|-----------------|-----------------|
G#----------------|-----------------|-----------5-----|-----------------|
E ---------0------|-----------5-----|-------5-----5---|-----------5-----|
B -----7-----7----|-------8-----8-7-|---------------0-|-------5-----5---|
F#---8---8--------|-----5---5-------|-----0-----------|-----3---------3-|
B -8--------------|-5---------------|-0-------0-------|-3-------3-------|


C#----------------|-----------------|-----------------|-----------------|
G#----------------|-----------------|-----------5-----|-----------------|
E ---------0------|-----------5-----|-------5-----5---|-----------5-----|
B -----7-----7----|-------8-----8-7-|---------------0-|-------5-----5---|
F#---8---8--------|-----5---5-------|-----0-----------|-----3---------3-|
B -8--------------|-5---------------|-0-------0-------|-3-------3-------|

C#----------------|-----------------|
G#----------------|-----------------|
E ---------0------|-----------5-----|
B -----7-----7----|-------8-----8-7-|
F#---8---8--------|-----5---5-------|
B -8--------------|-5---------------|
Tap to rate this tab
 
# A B C D E F G H I J K L M N O P Q R S T U V W X Y Z