Song name
# A B C D E F G H I J K L M N O P Q R S T U V W X Y Z

Parkway Drive - Set To Destroy tab

Parkway Drive-SET TO DESTROY

Tuning = Drop A# (A#,F,A#,D#,G,C)

Note: I dont have guitar pro and so havn't seen the other tabs on the site.
     Sorry if it turns out to be very similar.

Still great song and good way to end Deep Blue

LEGEND:

  h= hammer on
  p= pull off
  ~= ring out
x//=pickslide
PM.=Dotted Notes Are Palm Muted

  INTRO BOTH GUITARS               |----------TREM PICK-----------|
 C|---------------|-------------------------------------------------------|
 G|---------------|-------------------------------------------------------|
D#|---------------|-------------------------------------------------------|
A#|3~-------------|-------------------------------------------------------|
 F|3~--DRUM INTRO-|5---8---7---3-5-55557777555588885555777733335555-------|
A#|3~-------------|-000-000-000-------------------------------------------| 
PM                  ... ... ...
 C|---------------|-----GUITAR-1------|------GUITAR-2------|----BOTH------|
 G|---------------|-------------------|--------------------|---GUITARS----|
D#|---------------|-------------------|--------------------|--------------|
A#|---------------|-------------------|--------------------|--3-5---------|
 F|5---8---7---3-5|-0h3h5-5~--5h7h8-7~|-5h7p5-----7h8p7----|--3-5---------|
A#|-000-000-000---|-------5~--------7~|-------7~--------10~|--3-5---------| 
PM  ... ... ...
 C|-----------------------------------------------------------------------|
 G|-----------------------------------------------------------------------|
D#|-----------------------------------------------------------------------|
A#|-----------------------------------------------------------------------|
 F|5---8---7---3-5-55557777555588885555777733335555-5---8---7---3-5-------|
A#|-000-000-000--------------------------------------000-000-000----------| 
PM  ... ... ...                                      ... ... ...
                                               INTERLUDE
 C|-------------------|--------------------|------------------------------|
 G|-------------------|--------------------|------------------------------|
D#|-------------------|--------------------|------------------------------|
A#|-------------------|--------------------|-3-5-0~-----------------------|
 F|-0h3h5-5~--5h7h8-7~|-5h7p5-----7h8p7----|-3-5-0~-(LET-RING)------------|
A#|-------5~--------7~|-------7~--------10~|-3-5-0~-----------------------| 

 C|-------GUITAR-2-----------------|----GUITAR-1--------------------------|
 G|--------------------------------|--------------------------------------|
D#|--------------------------------|--------------------------------------|
A#|--------------------------------|0~------------------------------------|
 F|-x//////////////////////////////|0~----------x///////////////----------|
A#|-x//////////////////////////////|0~----------x///////////////----------| 

   INTRO BOTH GUITARS
 C|-----------------------------------------------------------------------|
 G|-----------------------------------------------------------------------|
D#|-----------------------------------------------------------------------|
A#|-----------------------------------------------------------------------|
 F|5---8---7---3-5-55557777555588885555777733335555-5---8---7---3-5-------|
A#|-000-000-000--------------------------------------000-000-000----------| 
PM  ... ... ...                                      ... ... ...
                                                  INTERLUDE
 C|---GUITAR-1--------|---GUITAR-2---------|------------------------------|
 G|-------------------|--------------------|------------------------------|
D#|-------------------|--------------------|------------------------------|
A#|-------------------|--------------------|--3-5-0~----------------------|
 F|-0h3h5-5~--5h7h8-7~|-5h7p5-----7h8p7----|--3-5-0~-(LET-RING)-----------|
A#|-------5~--------7~|-------7~--------10~|--3-5-0~----------------------|

 C|---------GUITAR-2---------------|-------GUITAR-1-----------------------|
 G|--------------------------------|--------------------------------------|
D#|--------------------------------|--------------------------------------|
A#|--------------------------------|0~------------------------------------|
 F|-x//////////////////////////////|0~---------x///////////////-----------|
A#|-x//////////////////////////////|0~---------x///////////////-----------| 
   
   BREAKDOWN 1
 C|----------------------------------------------------|
 G|----------------------------------------------------|
D#|----------------------------------------------------|
A#|0~----------------------------------------0~--------| x4  
 F|0~-0-0-0--0-0-0--0-0-0-0-0--0-0-0--0-0-0--0~-0-0-0--|
A#|0~-0-0-0--0-0-0--0-0-0-0-0--0-0-0--0-0-0--0~-0-0-0--| 
PM    . . .  . . .  . . . . .  . . .  . . .    . . .
   BREAKDOWN 2                 
 C|-----------------------------------------------------------------------|
 G|-----------------------------------------------------------------------|
D#|-----------------------------------------------------------------------|
A#|1--------------2--------------1--------------2--------------3~---------|
 F|1-0-0-0~-------0-0-0-0~-------1-0-0-0~-------0-0-0-0~-------3~---------|
A#|1-0-0-0~---------0-0-0~-------1-0-0-0~---------0-0-0~-------3~---------| 
PM   . .            . .            . .            . . 
   OUTRO
 C|------------------------------|
 G|------------------------------|
D#|------------------------------|
A#|----------------------------0-|
 F|-5---8----5555777733335555--0-|
A#|--000-000-------------------0-| 
PM   ... ...
Tap to rate this tab
 
# A B C D E F G H I J K L M N O P Q R S T U V W X Y Z