Song name
# A B C D E F G H I J K L M N O P Q R S T U V W X Y Z

Parkway Drive - Idols And Anchors tab

Parkway Drive - Idols And Anchors


W - whole; H - half; Q - quarter; E - 8th; S - 16th; T - 32nd; X - 64th


h  - hammer-on
p  - pull-off
b  - bend
\  - slide
T  - tap
PM - palm muting


Intro
Gtr 1
                                                       PM----------------|
   H E E E E H   E E E E W   H E E E E H   E E E E E   S S E S S E S S E Q
E|-------------|-----------|-------------|-3-2-3-2---|---------------------|
B|---4-3-4-3---|-4-3-4-3---|---4-3-4-3---|-----------|---------------------|
G|-4---------0-|-----------|-4---------0-|-----------|---------------------|
D|-------------|---------4-|-------------|---------4-|---------------------|
A|-------------|-----------|-------------|-----------|-0-0-0-0-0-0-0-0-0-0-|
E|-------------|-----------|-------------|-----------|-0-0-0-0-0-0-0-0-0-0-|


Gtr 1
                             PM--------------------|   PM--------|
   H E E E E H   E E E E H   S S E S S E S S E S S H   S S E S S E
E|-------------|-----------|-------------------------|-------------|
B|---4-3-4-3---|-4-3-4-3---|-------------------------|-------------|
G|-4---------0-|-----------|-------------------------|-------------|
D|-------------|---------4-|-------------------------|-------------|
A|-------------|-----------|-0-0-0-0-0-0-0-0-0-0-0-0-|-0-0-0-0-0-0-|
E|-------------|-----------|-0-0-0-0-0-0-0-0-0-0-0-0-|-0-0-0-0-0-0-|


Gtr 1

   H E E E E H   E S S S H   H S E S E S S H   H S E S E S S
E|-------------|-3---------|-----------------|---------------|
B|---4-3-4-3---|---3h4-----|-----------------|---------------|
G|-4---------0-|-------3---|-----------------|---------------|
D|-------------|---------4-|-----------------|---------------|
A|-------------|-----------|-0-0-0-0-0-0-0-0-|-0-0-0-0-0-0-0-|
E|-------------|-----------|-0-0-0-0-0-0-0-0-|-0-0-0-0-0-0-0-|


Gtr 1
                             PM--------------------|   PM--------|
   H E E E E H   E E E E H   S S E S S E S S E S S H   S S E S S E
E|-------------|-----------|-------------------------|-------------|
B|---4-3-4-3---|-4-3-4-3---|-------------------------|-------------|
G|-4---------0-|-----------|-------------------------|-------------|
D|-------------|---------4-|-------------------------|-------------|
A|-------------|-----------|-0-0-0-0-0-0-0-0-0-0-0-0-|-0-0-0-0-0-0-|
E|-------------|-----------|-0-0-0-0-0-0-0-0-0-0-0-0-|-0-0-0-0-0-0-|


Gtr 1

   H E E E E H   E S S S H   H S E S E S S H   H S E S E S S
E|-------------|-3---------|-----------------|---------------|
B|---4-3-4-3---|---3h4-----|-----------------|---------------|
G|-4---------0-|-------3---|-----------------|---------------|
D|-------------|---------4-|-----------------|---------------|
A|-------------|-----------|-0-0-0-0-0-0-0-0-|-0-0-0-0-0-0-0-|
E|-------------|-----------|-0-0-0-0-0-0-0-0-|-0-0-0-0-0-0-0-|


Gtr 1

   E E E E W
E|-----------|
B|-----------|
G|-----------|
D|-4-3-4-3---|
A|---------4-|
E|-----------|
Tap to rate this tab
 
# A B C D E F G H I J K L M N O P Q R S T U V W X Y Z