Parkway Drive - Guns For Show Knives For A Pro tab

Parkway Drive
Guns for Show, Knives for a Pro
Tuning: Drop B
Duration: 2:44



KEY

PM .- Palm mute note with .
* - Pinch Harmonic
X4/x2 - Number of time played
(W) - use Whammy bar
S - Slide
~ - Vibrato


C#|-------------------------|
G#|-------------------------|
E |-------------------------|
b |555---666---555---333----| x4
F#|---333---333---333---111-|
B |-------------------------|
   
               

C#|-------------------------------------------------------------------|
G#|-------------------------------------------------------------------|
E |-------------------------------------------------------------------|
b |0-0-5h8p5h8p5-0-0-0---0-0-5h8p5h8p5-0-0-5h8p5h8p5-7h10p7h10-5h8p5h8| x4
F#|0-0-----------0-0-0---0-0-----------0-0----------------------------|
B |0-0-----------0-0-0---0-0-----------0-0----------------------------|
PM . .           . . .   . .           . .

   
C#|------------------------------------------------------------------------|
G#|------------------------------------------------------------------------|
E |------------------------------------------------------------------------|
b |555---666---555---333---------555---666---888-----3-s-0----------s------|
F#|---333---333---333---111---333---333---333---333----s-0----------s------|
B |----------------------------------------------------s-0----------s------|
                                                    

C#|----------------------------------------------------|
G#|----------------------------------------------------|
E |----------------------------------------------------|
b |00-000--------------------00------------------------| X4
F#|00-000---10---12---8---5~-00---55558888777733337777-| on 2nd time play 7*
B |00-000-0----0----0---0----00------------------------| on 4th 7 rings out
PM        .    .    .   .   

C#|---------------------------------------------------------------------|
G#|---------------------------------------------------------------------|
E |---------------------------------------------------------------------|
b |0-----0-1-0-0-0000-01-0-0-0000-0-1-0-0-0000-1h3p1h3---3h5p3h5--------| X2
F#|0-----0-1-0-0-0000-01-0-0-0000-0-1-0-0-0000---------1----------3(W)--|
B |0-----0-1-0-0-0000-01-0-0-0000-0-1-0-0-0000--------------------------|
PM .                                             (Whammy on 2nd play)       
   
C#|--------------------------------------------------------------------|
G#|--------------------------------------------------------------------|
E |--------------------------------------------------------------------|
b |0-----0-1-0-0-0000-01-0-0-0000-0-1-0-0-0000-1h3p1h3---3h5p3h5-------| X2
F#|0-----0-1-0-0-0000-01-0-0-0000-0-1-0-0-0000---------1----------3----| 
B |0-----0-1-0-0-0000-01-0-0-0000-0-1-0-0-0000-------------------------|
PM .                                           (Slower than last time)

C#|-------------------------------|     |-------------------------------|
G#|-------------------------------|     |-------------------------------|
E |-------------------------------|     |-------------------------------|
B |-1h3p1-----3h5p3------3h6p3----| x3  |-1h3p1h3-----------------------|
F#|---------1---------3---------0-|     |-------------------------------|
B |-------------------------------|     |-------------------------------|
 

C#|---------------------------------------------------|
G#|---------------------------------------------------|
E |---------------------------------------------------|
b |-00----000--000--000---5h8p5h8p5-7h10p7h10-5h8p5h8-| x3
F#|-00----000--000--000-------------------------------| 
B |-00----000--000--000-------------------------------| 
PM  .


C#|----------------------------------------------------|
G#|----------------------------------------------------|
E |------------------------------------10*-------------|
b |0-0---0-0-0----0-0-0-0-00--77779999------0-0--------|
F#|0-0---0-0-0----0-0-0-0-00----------------0-0--------|
B |0-0---0-0-0----0-0-0-0-00----------------0-0--------|
Tap to rate this tab
 
# A B C D E F G H I J K L M N O P Q R S T U V W X Y Z