Song name
# A B C D E F G H I J K L M N O P Q R S T U V W X Y Z

Parkway Drive - Home Is For The Heartless tab

sorry I don't have the intro

Db------------------------------------------------|
Ab------------------------------------------------|
E-------------------------------------------------|
B---10-------9-------7-------5---2s4--3~----------|
Gb--0--------0-------0-------0---0----3~----------|
B------0-0-0---0-0-0---0-0-0---0------3~----------|



Db------------------------------------------------|
Ab------------------------------------------------|
E---------------------------------9-----10--------|
B----10----12------------x3-then:--10-----10------|
Gb--8----10----0---------------------12-----12----|
B--8---10------0-0-0-0-000-000--------------------|



Db------------------------------------------------|
Ab------------------------------------------------|
E-----5-4---7-5---------12------------------------|
B---3-----5-----7--10-9---9-10-7------------------|
Gb--3-----5-----7---------------------------------|
B---3-----5-----7---------------------------------|


Db-------------------------------------------------|
Ab-------------------------------------------------|
E-----5-4---7-5------------------------------------|
B---3-----5------10-------9-------7--------5---2s4-|
Gb--3-----5------0--------0-------0--------0---0---|
B---3-----5----0----0-0-0----0-0-0---0-0-0---0-----|


Guitar 1:
Db------------------------------------------------|
Ab--10-8-8-8-8-10-8-8-8-8-------------------------|
E-------7-7-7------7-7-7--------------------------|
B-------------------------------------------------|
Gb------------------------------------------------|
B-------------------------------------------------|


Guitar 2:
Db------------------------------------------------|
Ab------------------------------------------------|
E-------------------------------------------------|
B--3--------------------3-------------------------|
Gb-3--------------------3-------------------------|
B--3--------------------3-------------------------|


Tapping:
                                                  x2
Db-13p8p7p5-12p8p7p5-13p8p7p5-12p8p7p5------------|
Ab------------------------------------------------|
E-------------------------------------------------|
B-------------------------------------------------|
Gb------------------------------------------------|
B-------------------------------------------------|



Db-15p8p7p5-13p8p7p5-15p8p7p5-13p8p7p5-----------|
Ab-----------------------------------------------|
E------------------------------------------------|
B------------------------------------------------|
Gb-----------------------------------------------|
B------------------------------------------------|


Db-17p8p7p5-15p8p7p5-17p8p7p5-15p8p7p5----------|
Ab----------------------------------------------|
E-----------------------------------------------|
B-----------------------------------------------|
Gb----------------------------------------------|
B-----------------------------------------------|

    x4        x4      x4       x4
Db-17p8p7p5-20p8p7p5-19p8p7p5-15p8p7p5----------|
Ab----------------------------------------------|
E-----------------------------------------------|
B-----------------------------------------------|
Gb----------------------------------------------|
B-----------------------------------------------|


Db------------------------------------------------|
Ab------------------------------------------------|
E-----5-4---7-5---------12------------------------|
B---3-----5-----7--10-9---9-10-7------------------|
Gb--3-----5-----7---------------------------------|
B---3-----5-----7---------------------------------|


Db-------------------------------------------------|
Ab-------------------------------------------------|
E-----5-4---7-5------------------------------------|
B---3-----5------10-------9-------7--------5---2s4-|
Gb--3-----5------0--------0-------0--------0---0---|
B---3-----5----0----0-0-0----0-0-0---0-0-0---0-----|

Ending before Tapping:
Db------------------------------------------------|
Ab------------------------------------------------|
E-------------------------------------------------|
B-------------------------------------------------|
Gb--7-7---0-0-------------------------------------|
B---7-7---0-0-------------------------------------|

Tapping:
    x4        x4      x4       x4
Db-17p8p7p5-20p8p7p5-19p8p7p5-15p8p7p5----------|
Ab----------------------------------------------|
E-----------------------------------------------|
B-----------------------------------------------|
Gb----------------------------------------------|
B-----------------------------------------------|



Db------------------------------------------------|
Ab------------------------------------------------|
E-----5-4---7-5---------12------------------------|
B---3-----5-----7--10-9---9-10-7------------------|
Gb--3-----5-----7---------------------------------|
B---3-----5-----7---------------------------------|



Ending:
Db------------------------------------------------|
Ab------------------------------------------------|
E-------------------------------------------------|
B-------------------------------------------------|
Gb--7-7---0-0-------------------------------------|
B---7-7---0-0-------------------------------------|
Tap to rate this tab
 
# A B C D E F G H I J K L M N O P Q R S T U V W X Y Z