Song name
# A B C D E F G H I J K L M N O P Q R S T U V W X Y Z

Parkway Drive - Flesh Bone And Weakness tab

Tuning: Drop B
First tab by ear. Enjoy.



E|-----------------------------------------|
B|-----------------------------------------|
G|-----------------------------------------|
D|----9-10-9----9-10-9----7-10-7----7-10-7-|
A|-----------------------------------------|
E|--7---------7---------7---------7--------|

 |-----------------------------------------------|
 |-----------------------------------------------|
 |-------9----------9----------------------------|
 |----10---10----10---10--------9------12-10-9---|
 |---------------------------10---10----------10-|
 |--7----------7-----------7---------------------|
Tap to rate this tab
 
# A B C D E F G H I J K L M N O P Q R S T U V W X Y Z