Parkway Drive - Pandora tab

-------------------------------------------------------------------------------
			     Pandora - Parkway Drive
-------------------------------------------------------------------------------
Tabbed by: TheOmegaKitten
Email: yea right

Tuning: Drop B

Great band, great song and now a great tab. This has been a collective 
piece by me and a friend, and as such, is a two guitar transcription. 
So here you go, Pandora!

e|--------------------------------------------------------| Guitar 1
B|--10-------------10-------------6-----------6-----------|
G|------10--12--9------10--12--9-----7--9--5-----7--9--5--|
D|--------------------------------------------------------|
A|--------------------------------------------------------|
E|--------------------------------------------------------|
 |
 |
e|--------------------------------------------------------| Guitar 2
B|--------------------------------------------------------|
G|--------------------------------------------------------|
D|--0-----------------------------8-----------10----------|
A|--0-----------------------------8-----------10----------|
E|--0-----------------------------8-----------10----------|


e|--------------------------------------------------------|
B|--10-------------10-------------6-----------6-----------|
G|------10--12--9------10--12--9-----7--9--5-----7--9--5--|
D|--------------------------------------------------------|
A|--------------------------------------------------------|
E|--------------------------------------------------------|
 |
 |
e|--------------------------------------------------------|
B|--------------------------------------------------------|
G|--------------------------------------------------------|
D|--0-----------------------------8-----------10----------|
A|--0-----------------------------8-----------10----------|
E|--0-----------------------------8-----------10----------|


e|--------------------------------------------------------|
B|--10-------------10-------------6-----------6-----------|
G|------10--12--9------10--12--9-----7--9--5-----7--9--5--|
D|--------------------------------------------------------|
A|--------------------------------------------------------|
E|--------------------------------------------------------|
 |
 |
e|--------------------------------------------------------|
B|--------------------------------------------------------|
G|--------------------------------------------------------|
D|--------------------------------------------------------|
A|--00-7-8-7-5-----00-7-8-7-5----88-7-8-7-5--1010-8-10-8-7|
E|--00-------------00------------88----------1010---------|


e|--------------------------------------------------------|
B|--10-------------10-------------6-----------6-----------|
G|------10--12--9------10--12--9-----7--9--5-----7--9--5--|
D|--------------------------------------------------------|
A|--------------------------------------------------------|
E|--------------------------------------------------------|
 |
 |
e|--------------------------------------------------------|
B|--------------------------------------------------------|
G|--------------------------------------------------------|
D|--------------------------------------------------------|
A|--00-7-8-7-5-----00-7-8-7-5----88-7-8-7-5--1010-8-10-8-7|
E|--00-------------00------------88----------1010---------|


e|----------------------------------------------------------------------------------|
B|----------------------------------------------------------------------------------|
G|----------------------------------------------------------------------------------|
D|--7777-3333-0000-3333-7777-3333--------------------------3333-5555-3333-----------|
A|--------------------------------7777-3333------5555-7777----------------7777-5555-|
E|------------------------------------------5555------------------------------------|
 |
 |
e|----------------------------------------------------------------------------------|
B|----------------------------------------------------------------------------------|
G|----------------------------------------------------------------------------------|
D|--0-----------------------------5---------5-----------------------------5---------|
A|--0-----------------------------3---------5-----------------------------3---------|
E|--0---------------------------------------5---------------------------------------|


e|----------------------------------------------------------------------------------|
B|----------------------------------------------------------------------------------|
G|----------------------------------------------------------------------------------|
D|--7777-3333-0000-3333-7777-3333--------------------------3333-5555-3333-----------|
A|--------------------------------7777-3333------5555-7777----------------7777-5555-|
E|------------------------------------------5555------------------------------------|
 |
 |
e|----------------------------------------------------------------------------------|
B|----------------------------------------------------------------------------------|
G|----------------------------------------------------------------------------------|
D|--0-----------------------------5---------5-----------------------------5---------|
A|--0-----------------------------3---------5-----------------------------3---------|
E|--0---------------------------------------5---------------------------------------|


e|------------------------------------------|
B|------------------------------------------|
G|--------7/-------7/-------7/--------------|
D|--------x--------x--------x---------------|
A|--------5/-------5/-------5/--5--7--8--7--|
E|--00000----00000----00000-----------------|
 |
 |
e|------------------------------------------|
B|------------------------------------------|
G|-------10/------10/------10/--------------|
D|--------x--------x--------x---------------|
A|--------8/-------8/-------8/--8-10-12-10--|
E|--00000----00000----00000-----------------|


e|------------------------------------------|
B|------------------------------------------|
G|--------7/-------7/-------7/--------------|
D|--------x--------x--------x---------------|
A|--------5/-------5/-------5/--5--7--8--7--|
E|--00000----00000----00000-----------------|
 |
 |
e|------------------------------------------|
B|------------------------------------------|
G|-------10/------10/------10/--------------|
D|--------x--------x--------x---------------|
A|--------8/-------8/-------8/--8-10-12-10--|
E|--00000----00000----00000-----------------|


e|--------------------------------------------------------|
B|--10-------------10-------------6-----------6-----------|
G|------10--12--9------10--12--9-----7--9--5-----7--9--5--|
D|--------------------------------------------------------|
A|--------------------------------------------------------|
E|--------------------------------------------------------|
 |
 |
e|--------------------------------------------------------|
B|--------------------------------------------------------|
G|--------------------------------------------------------|
D|--0----------------------10--3--------------------------|
A|--0----------------------10--3--------------5--7--8--7--|
E|--0----------------------10--3--------------------------|


e|--------------------------------------------------------|
B|--10-------------10-------------6-----------6-----------|
G|------10--12--9------10--12--9-----7--9--5-----7--9--5--|
D|--------------------------------------------------------|
A|--------------------------------------------------------|
E|--------------------------------------------------------|
 |
 |
e|--------------------------------------------------------|
B|--------------------------------------------------------|
G|----------------------------12----------------12--------|
D|--0-------------8--------------10----------------10-----|
A|--0-------------8--10----10-------10-10----10-------10--|
E|--0-------------8--10-10-10----------10-10-10-----------|


e|--------------------------------------------------------|
B|--10-------------10-------------6-----------6-----------|
G|------10--12--9------10--12--9-----7--9--5-----7--9--5--|
D|--------------------------------------------------------|
A|--------------------------------------------------------|
E|--------------------------------------------------------|
 |
 |
e|--------------------------------------------------------|
B|--------------------------------------------------------|
G|--------------------------------------------------------|
D|--------------------------------------------------------|
A|--00-7-8-7-5-----00-7-8-7-5----88-7-8-7-5--1010-8-10-8-7|
E|--00-------------00------------88----------1010---------|


e|--------------------------------------------------------|
B|--10-------------10-------------6-----------6-----------|
G|------10--12--9------10--12--9-----7--9--5-----7--9--5--|
D|--------------------------------------------------------|
A|--------------------------------------------------------|
E|--------------------------------------------------------|
 |
 |
e|--------------------------------------------------------|
B|--------------------------------------------------------|
G|--------------------------------------------------------|
D|--------------------------------------------------------|
A|--00-7-8-7-5-----00-7-8-7-5----88-7-8-7-5---------------|
E|--00-------------00------------88-----------------------|


e|--------------------------------------------------------|
B|--------------------------------------------------------|
G|--------------------------------------------------------|
D|--0----------------------------12----------12-----------|
A|--0-----------------------------8----------10-----------|
E|--0-----------------------------8----------10-----------|
 |
 |
e|--------------------------------------------------------|
B|--------------------------------------------------------|
G|--------------------------------------------------------|
D|--0----------------------------12----------12-----------|
A|--0-----------------------------8----------10-----------|
E|--0-----------------------------8----------10-----------|


e|--------------------------------------------------------|
B|--------------------------------------------------------|
G|--------------------------------------------------------|
D|--0----------------------------12----------12-----------|
A|--0-----------------------------8----------10-----------|
E|--0-----------------------------8----------10-----------|
 |
 |
e|--------------------------------------------------------|
B|--------------------------------------------------------|
G|--------------------------------------------------------|
D|--0----------------------------12----------12-----------|
A|--0-----------------------------8----------10-----------|
E|--0-----------------------------8----------10-----------|


e|--------------------------------------------------------|
B|----------------------6-----------------11----------13--|
G|----------------5-7------7-5----------------------------|
D|--0---------------------------7-8-10-12----10-12-14-----|
A|--0-----------------------------8----------10-----------|
E|--0-----------------------------8----------10-----------|
 |
 |
e|--------------------------------------------------------|
B|---------------------10---------------------------------|
G|----------------9-10----10-9------------10----------12--|
D|--0--------------------------10-8-10-12----10-12-14-----|
A|--0-----------------------------8----------10-----------|
E|--0-----------------------------8----------10-----------|


e|--------------------------------------------------------|
B|----------------------6-----------------11----------13--|
G|----------------5-7------7-5----------------------------|
D|--0---------------------------7-8-10-12----10-12-14-----|
A|--0-----------------------------8----------10-----------|
E|--0-----------------------------8----------10-----------|
 |
 |
e|--------------------------------------------------------|
B|---------------------10---------------------------------|
G|----------------9-10----10-9------------10----------12--|
D|--0--------------------------10-8-10-12----10-12-14-----|
A|--0-----------------------------8----------10-----------|
E|--0-----------------------------8----------10-----------|


e|--------------------------------------------------------|
B|--------------------3+----------------------------------|
G|--------------------3+----------------------------------|
D|--------------------------------------------------------|
A|--------------------------------------------------------|
E|--0-000-------------------------------------------------|
 |
 |
e|--------------------------------------------------------|
B|--------------------3+----------------------------------|
G|--------------------3+----------------------------------|
D|--------------------------------------------------------|
A|--------------------------------------------------------|
E|-----------0-000----------------------------------------|


e|--------------------------------------------------------------------------|
B|---------10-------10--------10--------------------------------------------|
G|---------------12-----------------10-9----------9----7-----------7-0-5-4--|
D|------------12-----------------12------------7----10---9--55555-----------|
A|---------------------------------------------7------------55555-----------|
E|--0-000--------------0-000--------------0000-7------------55555-----------|
 |
 |
e|--------------------------------------------------------------------------|
B|--------------------------------------------------------------------------|
G|--------------------------------------------------------------------------|
D|---------------------------------------------7------------55555-----------|
A|---------------------------------------------7------------55555-----------|
E|--0-000--------------0-000--------------0000-7------------55555-----------|


e|--------------------------------------------------------------------------|
B|---------10-------10--------10--------------------------------------------|
G|---------------12-----------------10-9----------9----7-----------7-0-5-4--|
D|------------12-----------------12------------7----10---9--55555-----------|
A|---------------------------------------------7------------55555-----------|
E|--0-000--------------0-000--------------0000-7------------55555-----------|
 |
 |
e|--------------------------------------------------------------------------|
B|--------------------------------------------------------------------------|
G|--------------------------------------------------------------------------|
D|---------------------------------------------7------------55555-----------|
A|---------------------------------------------7------------55555-----------|
E|--0-000--------------0-000--------------0000-7------------55555-----------|


e|--------------------------------------------------------------------------|
B|---------10-------10--------10--------------------------------------------|
G|---------------12-----------------10-9----------9----7-----------7-0-5-4--|
D|------------12-----------------12------------7----10---9--55555-----------|
A|---------------------------------------------7------------55555-----------|
E|--0-000--------------0-000--------------0000-7------------55555-----------|
 |
 |
e|--------------------------------------------------------------------------|
B|---------6--------6---------6-------------------8/3-----------------------|
G|------------7--9---------------7--7--5---------------------------7-0-5+4+-|
D|---------------------------------------------7------------55555-----------|
A|---------------------------------------------7------------55555-----------|
E|--0-000--------------0-000--------------0000-7------------55555-----------|


e|--------------------------------------------------------------------------|
B|---------10-------10--------10--------------------------------------------|
G|---------------12-----------------10-9----------9----7-----------7-0-5-4--|
D|------------12-----------------12------------7----10---9--55555-----------|
A|---------------------------------------------7------------55555-----------|
E|--0-000--------------0-000--------------0000-7------------55555-----------|
 |
 |
e|--------------------------------------------------------------------------|
B|---------6--------6---------6-------------------8/3-----------------------|
G|------------7--9---------------7--7--5---------------------------7-0-5+4+-|
D|---------------------------------------------7------------55555-----------|
A|---------------------------------------------7------------55555-----------|
E|--0-000--------------0-000--------------0000-7------------55555-----------|


e|------------------------------------------|
B|------------------------------------------|
G|--------7/-------7/-------7/--------------|
D|--------x--------x--------x---------------|
A|--------5/-------5/-------5/--5--7--8--7--|
E|--00000----00000----00000-----------------|
 |
 |
e|------------------------------------------|
B|------------------------------------------|
G|-------10/------10/------10/--------------|
D|--------x--------x--------x---------------|
A|--------8/-------8/-------8/--8-10-12-10--|
E|--00000----00000----00000-----------------|


e|------------------------------------------|
B|------------------------------------------|
G|--------7/-------7/-------7/--------------|
D|--------x--------x--------x---------------|
A|--------5/-------5/-------5/--------------|
E|--00000----00000----00000-----------------|
 |
 |
e|------------------------------------------|
B|------------------------------------------|
G|-------10/------10/------10/--------------|
D|--------x--------x--------x---------------|
A|--------8/-------8/-------8/--------------|
E|--00000----00000----00000-----------------|


e|--------------------------------------------------------|
B|--------------------------------------------------------|
G|--------------------------------------------------------|
D|--0----------------------------12----------12-----------|
A|--0-----------------------------8----------10-----------|
E|--0-----------------------------8----------10-----------|
 |
 |
e|--------------------------------------------------------|
B|--------------------------------------------------------|
G|--------------------------------------------------------|
D|--0----------------------------12----------12-----------|
A|--0-----------------------------8----------10-----------|
E|--0-----------------------------8----------10-----------|


e|--------------------------------------------------------|
B|--------------------------------------------------------|
G|--------------------------------------------------------|
D|--0----------------------------12----------12-----------|
A|--0-----------------------------8----------10-----------|
E|--0-----------------------------8----------10-----------|
 |
 |
e|--------------------------------------------------------|
B|--------------------------------------------------------|
G|--------------------------------------------------------|
D|--0----------------------------12----------12-----------|
A|--0-----------------------------8----------10-----------|
E|--0-----------------------------8----------10-----------|


e|--------------------------------------------------------|
B|----------------------6-----------------11----------13--|
G|----------------5-7------7-5----------------------------|
D|--0---------------------------7-8-10-12----10-12-14-----|
A|--0-----------------------------8----------10-----------|
E|--0-----------------------------8----------10-----------|
 |
 |
e|--------------------------------------------------------|
B|---------------------10---------------------------------|
G|----------------9-10----10-9------------10----------12--|
D|--0--------------------------10-8-10-12----10-12-14-----|
A|--0-----------------------------8----------10-----------|
E|--0-----------------------------8----------10-----------|


e|------------------------------------------------------------|
B|----------------------6-----------------11----------13------|
G|----------------5-7------7-5--------------------------------|
D|--0---------------------------7-8-10-12----10-12-14------0--|
A|--0-----------------------------8----------10------------0--|
E|--0-----------------------------8----------10------------0--|
 |
 |
e|------------------------------------------------------------|
B|---------------------10-------------------------------------|
G|----------------9-10----10-9------------10----------12------|
D|--0--------------------------10-8-10-12----10-12-14---------|
A|--0-----------------------------8----------10---------------|
E|--0-----------------------------8----------10---------------|


e|-------------------------------------------------------------------|
B|----------5-----5---------5-----5----------------------------------|
G|------5-----5---------5-----5-------------5---3--------------------|
D|--------7-----7---------7-----7-------3-----3---7-----3---5---3----|
A|----0---------------0---------------3---3-----------3---3---3---7--|
E|--0---------------0---------------3---------------3----------------|
 |
 |
e|-------------------------------------------------------------------|
B|-------------------------------------------------------------------|
G|-------------------------------------------------------------------|
D|--0----------------------------------------------------------------|
A|--0----------------------------------------------------------------|
E|--0----------------------------------------------------------------|


e|-------------------------------------------------------------------|
B|----------5-----5---------5-----5----------------------------------|
G|------5-----5---------5-----5-------------5---3--------------------|
D|--------7-----7---------7-----7-------3-----3---7-----3---5---3----|
A|----0---------------0---------------3---3-----------3---3---3---7--|
E|--0---------------0---------------3---------------3----------------|
 |
 |
e|-------------------------------------------------------------------|
B|-------------------------------------------------------------------|
G|-------------------------------------------------------------------|
D|--3----------------------------------------------------------------|
A|--3----------------------------------------------------------------|
E|--3----------------------------------------------------------------|


e|-------------------------------------------------------------------|
B|----------5-----5---------5-----5----------------------------------|
G|------5-----5---------5-----5-------------5---3--------------------|
D|--------7-----7---------7-----7-------3-----3---7-----3---5---3----|
A|----0---------------0---------------3---3-----------3---3---3---7--|
E|--0---------------0---------------3---------------3----------------|
 |
 |
e|-------------------------------------------------------------------|
B|-------------------------------------------------------------------|
G|-------------------------------------------------------------------|
D|--0----------------------------------------------------------------|
A|--0----------------------------------------------------------------|
E|--0----------------------------------------------------------------|


e|-------------------------------------------------------------------|
B|----------5-----5---------5-----5----------------------------------|
G|------5-----5---------5-----5-------------5---3--------------------|
D|--------7-----7---------7-----7-------3-----3---7-----3---5--------|
A|----0---------------0---------------3---3-----------3---3----------|
E|--0---------------0---------------3---------------3----------------|
 |
 |
e|-------------------------------------------------------------------|
B|-------------------------------------------------------------------|
G|-------------------------------------------------------------------|
D|--3----------------------------------------------------------------|
A|--3----------------------------------------------------------------|
E|--3----------------------------------------------------------------|


e|-------------------------------------------------------------------|
B|----------5--------------5-----------------------------------------|
G|------5-----5--------5-----5------------5-3-2----------------------|
D|--------7-----7--88----7-----7--33--5-3--------33--3---5-3-2-------|
A|--00-------------88-------------33-------------33----3-------------|
E|--00-------------88-------------33-------------33------------------|
 |
 |
e|-------------------------------------------------------------------|
B|----------5--------------5-----------------------------------------|
G|------5-----5--------5-----5------------5-3-2----------------------|
D|--------7-----7--88----7-----7--33--5-3--------33--3---5-3-2-------|
A|--00-------------88-------------33-------------33----3-------------|
E|--00-------------88-------------33-------------33------------------|


e|-------------------------------------------------------------------|
B|----------5--------------5-----------------------------------------|
G|------5-----5--------5-----5------------5-3-2----------------------|
D|--------7-----7--88----7-----7--33--5-3--------33--3---5-3-2-------|
A|--00-------------88-------------33-------------33----3-------------|
E|--00-------------88-------------33-------------33------------------|
 |
 |
e|-------------------------------------------------------------------|
B|----------5--------------5-----------------------------------------|
G|------5-----5--------5-----5------------5-3-2----------------------|
D|--------7-----7--88----7-----7--33--5-3--------33--3---5-3-2-------|
A|--00-------------88-------------33-------------33----3-------------|
E|--00-------------88-------------33-------------33------------------|


e|-------------------------------------------------------------------|
B|----------5-6-5---------6---5-----------5-3-2----------------------|
G|------5-----------4-5-7---7---------5-3----------------------------|
D|--------7-----------------------33-------------33--3---5-3-2-------|
A|--00------------0---------------33-------------33----3-------------|
E|--00------------0---------------33-------------33------------------|
 |
 |
e|-------------------------------------------------------------------|
B|----------8-10-8--------8-10-8----------5+3-2----------------------|
G|------9----------7-9-10-------------5-3----------------------------|
D|--------10----------------------33-------------33--3---5+3-2-------|
A|--00----------------------------33-------------33----3-------------|
E|--00----------------------------33-------------33------------------|


e|-------------------------------------------------------------------|
B|----------5-6-5---------6---5-----------5-3-2----------------------|
G|------5-----------4-5-7---7---------5-3----------------------------|
D|--------7-----------------------33-------------33--3---5-3-2-------|
A|--00------------0---------------33-------------33----3-------------|
E|--00------------0---------------33-------------33------------------|
 |
 |
e|-------------------------------------------------------------------|
B|----------8-10-8--------8-10-8----------5+3-2----------------------|
G|------9----------7-9-10-------------5-3----------------------------|
D|--------10----------------------33-------------33--3---5+3-2-------|
A|--00----------------------------33-------------33----3-------------|
E|--00----------------------------33-------------33------------------|


e|-------------------------------------------------------------------|
B|-------------------------------------------------------------------|
G|-------------------------------------------------------------------|
D|--------------------------------------10-------------12------------|
A|--------------------------------------8--------------10------------|
E|---0000-0--------0000-0----------0000-8---------0000-10------------|
 |
 |
e|-------------------------------------------------------------------|
B|-------------------------------------------------------------------|
G|-------------------------------------------------------------------|
D|--------------------------------------10-------------12------------|
A|--------------------------------------8--------------10------------|
E|---0000-0--------0000-0----------0000-8---------0000-10------------|


e|-------------------------------------------------------------------|
B|-------------------------------------------------------------------|
G|-------------------------------------------------------------------|
D|--------------------------------------10-------------12------------|
A|--------------------------------------8--------------10------------|
E|---0000-0--------0000-0----------0000-8---------0000-10------------|
 |
 |
e|-------------------------------------------------------------------|
B|-------------------------------------------------------------------|
G|-------------------------------------------------------------------|
D|--------------------------------------10-------------12------------|
A|--------------------------------------8--------------10------------|
E|---0000-0--------0000-0----------0000-8---------0000-10------------|


e|-------------------------------------------------------------------------------|
B|-------------------------------------------------------------------------------|
G|----------7--------------7-------------7---------------------------------------|
D|----------x--------------x-------------x---------------------------------------|
A|----------5--------------5-------------5-------5p3p0---5p3p0---5p3p0---5p3p0---|
E|--0000-0----0-0--0000-0----0-0--0000-0-----0-0---------------------------------|
 |
 |
e|-------------------------------------------------------------------------------|
B|-------------------------------------------------------------------------------|
G|----------7--------------7-------------7---------------------------------------|
D|----------x--------------x-------------x---------------------------------------|
A|----------5--------------5-------------5-------8p6p0---8p6p0---8p6p0---8p6p0---|
E|--0000-0----0-0--0000-0----0-0--0000-0-----0-0---------------------------------|


e|-------------------------------------------------------------------------------|
B|-------------------------------------------------------------------------------|
G|----------7--------------7-------------7---------------------------------------|
D|----------x--------------x-------------x---------------------------------------|
A|----------5--------------5-------------5-------5p3p0---5p3p0---5p3p0---5p3p0---|
E|--0000-0----0-0--0000-0----0-0--0000-0-----0-0---------------------------------|
 |
 |
e|-------------------------------------------------------------------------------|
B|-------------------------------------------------------------------------------|
G|----------7--------------7-------------7---------------------------------------|
D|----------x--------------x-------------x---------------------------------------|
A|----------5--------------5-------------5-------8p6p0---8p6p0---8p6p0---8p6p0---|
E|--0000-0----0-0--0000-0----0-0--0000-0-----0-0---------------------------------|


e|-------------------------------------------------------------------------------|
B|-------------------------------------------------------------------------------|
G|----------7--------------7-------------7---------------------------------------|
D|----------x--------------x-------------x---------------------------------------|
A|----------5--------------5-------------5-------5p3p0---5p3p0---5p3p0---5p3p0---|
E|--0000-0----0-0--0000-0----0-0--0000-0-----0-0---------------------------------|
 |
 |
e|-------------------------------------------------------------------------------|
B|-------------------------------------------------------------------------------|
G|---------10-------------10------------10---------------------------------------|
D|----------x--------------x-------------x---------------------------------------|
A|----------8--------------8-------------8-------12p10p0-12p10p0-12p10p0-12p10p0-|
E|--0000-0----0-0--0000-0----0-0--0000-0-----0-0---------------------------------|


e|-------------------------------------------------------------------------------|
B|-------------------------------------------------------------------------------|
G|----------7--------------7-------------7---------------------------------------|
D|----------x--------------x-------------x---------------------------------------|
A|----------5--------------5-------------5-------5p3p0---5p3p0---5p3p0---5p3p0---|
E|--0000-0----0-0--0000-0----0-0--0000-0-----0-0---------------------------------|
 |
 |
e|-------------------------------------------------------------------------------|
B|-------------------------------------------------------------------------------|
G|---------10-------------10------------10---------------------------------------|
D|----------x--------------x-------------x---------------------------------------|
A|----------8--------------8-------------8-------12p10p0-12p10p0-12p10p0-12p10p0-|
E|--0000-0----0-0--0000-0----0-0--0000-0-----0-0---------------------------------|


e|-----------------------------------------------------------------------|
B|-----------------------------------------------------------------------|
G|-----------------------------------------------------------------------|
D|-----------------------------------------------------------------------|
A|--5/-------------------------------------------------------------------|
E|-----------------------------------------------------------------------|
 |
 |
e|-----------------------------------------------------------------------|
B|-----------------------------------------------------------------------|
G|-----------------------------------------------------------------------|
D|-----------------------------------------------------------------------|
A|--8/-------------------------------------------------------------------|
E|-----------------------------------------------------------------------|

Hey you did it perfectly! Please comment if you have corrections or questions and
please rate with five stars ;)

************************************

| /   slide up
| \   slide down
| h   hammer-on
| p   pull-off
| ~   vibrato
| +   harmonic
| x   Mute note
| b   Bend
| pb  Pre-bend
| br  Bend release
| pbr Pre-bend release
| brb Bend release bend

************************************
Tap to rate this tab
 
# A B C D E F G H I J K L M N O P Q R S T U V W X Y Z