Song name
# A B C D E F G H I J K L M N O P Q R S T U V W X Y Z

Parkway Drive - Horizons tab

-----------------------------------------------------------------------------
                         Parkway Drive : Horizons
-----------------------------------------------------------------------------
Tabbed by:Metalcoreking
Email:Matthessell@live.com

Tuning:BF#BEGC#

INTRO
C#|-7-----7-----10--2-----2-----5--3-----3-----7--5-----7-----2---------(x6)|
 G|---0-----0---------0-----0--------0-----0--------0-----0-----------------|
 E|-----0-----0---------0-----0--------0-----0--------0-----0---------------|
 B|-------------------------------------------------------------------------|
F#|-------------------------------------------------------------------------|
 B|-------------------------------------------------------------------------|
  |                                                                         |
C#|-------------------------------------------------------------------------|
 G|-------------------------------------------------------------------------|
 E|-5555555555555555-7777777777777777-5555555555555555-77777777-------------|
 B|-5555555555555555-7777777777777777-5555555555555555-55555555---5---4---2-|
F#|-3333333333333333-5555555555555555-3333333333333333-55555555---5---4---2-|
 B|---------------------------------------------------------------5---4---2-|
    xxxxxxxxxxxxxxxx xxxxxxxxxxxxxxxx xxxxxxxxxxxxxxxx xxxxxxxx

VERSE x2
C#|---------------------------------------------------------------------(x2)|
 G|-------------------------------------------------------------------------|
 E|-------------------------------------------------------------------------|
 B|-------------------------------------------------------------------------|
F#|-------5h7h8-------7h8h10-------3---8---7p5p3----------------------------|
 B|-0-0-0-------0-0-0--------0-0-0---0---0----------------------------------|
  | x x x       x x x        x x x   x   x                                  |
C#|-------------------------------------------------------(x4)-(2nd-Time-x2)|
 G|-------------------------------------------------------------------------|
 E|-------------------------------------------------------------------------|
 B|-------------------------------------------------------------------------|
F#|-------7h8h10-------8h10h12-------12-----10---8p7p5----------------------|
 B|-5-5-5--------7-7-7---------8-8-8----8-8----8----------------------------|
    x x x        x x x         x x x    x x    x

BREAKDOWN
C#|---------------------------------------------------------------------(x3)|
 G|-------------------------------------------------------------------------|
 E|-------------------------------------------------------------------------|
 B|-0-0--0-0-0-0--0-0-0-0--0-0-0-0--0-0--0-0-0-0--0-0-0-3---0-0-0-----------|
F#|-0-0--0-0-0-0--0-0-0-0--0-0-0-0--0-0--0-0-0-0--0-0-0---7-0-0-0-3p2-------|
 B|-0-0--0-0-0-0--0-0-0-0--0-0-0-0--0-0--0-0-0-0--0-0-0-----0-0-0-----------|
  | x x  x x x x  x x x x  x x x x  x x  x x x x  x x x     x x x           |
C#|-------------------------------------------------------------------------|
 G|-------------------------------------------------------------------------|
 E|-------------------------------------------------------------------------|
 B|-0-0--0-0-0-0--0-0-0-0--0-0-0-0--0-0--0-0-0-0-7-7-7-5-5-5----------------|
F#|-0-0--0-0-0-0--0-0-0-0--0-0-0-0--0-0--0-0-0-0-------------3-3-3----------|
 B|-0-0--0-0-0-0--0-0-0-0--0-0-0-0--0-0--0-0-0-0-------------------5-5-5----|
    x x  x x x x  x x x x  x x x x  x x  x x x x

VERSE
C#|---------------------------------------------------------------------(x4)|
 G|-------------------------------------------------------------------------|
 E|-------------------------------------------------------------------------|
 B|-------------------------------------------------------------------------|
F#|-------7---8---7-8-------7---8---7-8--------8---8p7-5-7-------5---5p3---3|
 B|-8-8-8---8---8-----5-5-5---5---5------0-0-0---0---------3-3-3---3-----3--|
    x x x   x   x     x x x   x   x      x x x   x         x x x   x     x 
 
C#|---------------------------------------------------------------------(x1)|
 G|-------------------------------------------------------------------------|
 E|-------------------------------------------------------------------------|
 B|---0---------------------------------------------------------------------|
F#|---0---------5h7h8-------7h8h10-------3---8---7p5p3----------------------|
 B|---0---0-0-0-------0-0-0--------0-0-0---0---0----------------------------|
  |       x x x       x x x        x x x   x   x                            |
C#|---------------------------------------------------------------------(x4)|
 G|-------------------------------------------------------------------------|
 E|-------------------------------------------------------------------------|
 B|-------------------------------------------------------------------------|
F#|-------7h8h10-------8h10h12-------12-----10---8p7p5----------------------|
 B|-5-5-5--------7-7-7---------8-8-8----8-8----8----------------------------|
    x x x        x x x         x x x    x x    x

BREAKDOWN
C#|-------------------|-------------------------------------------------(x4)|
 G|-------------------|-----------------------------------------------------|
 E|---------7---------|-----------------------------------------------------|
 B|-0--0--0-7-0-0-0-0-|-0--------0--------0------0------0-------------------|
F#|-0--0--0-5-0-0-0-0-|-0-00000--0-00000--0-000--0-000--0-00000-------------|
 B|-0--0--0---0-0-0-0-|-0-00000--0-00000--0-000--0-000--0-00000-------------|
  |           x x x x     xxxxx    xxxxx    xxx    xxx    xxxxx             |
C#|-------------------------------------------------------------------------|
 G|--------3----------3-------------------3----------3-------------------3--|
 E|--------2----------2-------------------2----------2-------------------2--|
 B|--------0----------0-------------------0----------0-------------------0--|
F#|-000-0--0---000-0--0---000-000--000-0--0---000-0--0---000-000--000-0--0--|
 B|-000-0--0---000-0--0---000-000--000-0--0---000-0--0---000-000--000-0--0--|
  | xxx x      xxx x      xxx xxx  xxx x      xxx x      xxx xxx  xxx x     |
C#|-------------------------------------------------------------------------|
 G|--------3----------3-------------------3----------3----------------------|
 E|--------2----------2-------------------2----------2----------------------|
 B|--------0----------0-------------------0----------0----------------------|
F#|-000-0--0---000-0--0---000-000--000-0--0---000-0--0----------------------|
 B|-000-0--0---000-0--0---000-000--000-0--0---000-0--0----------------------|

INTERLUDE
C#|-------------------------------------------------------------------------|
 G|-------------------------------------------------------------------------|
 E|------------------------------------------------9-109--7-----------------|
 B|--------------7-----------------------------10--x-x-x--x-----------------|
F#|-------3------3----------------------3------7---7/8\7--5-----------------|
 B|-0h3h7---7-5--3----------------0h3h7---7-5--7----------------------------|
  |                                                                         |
C#|---------------------------------------------------------------------(x2)|
 G|-------------------------------------------------------------------------|
 E|-----------------5-7-7-7------------------------7-9-7--5--4--------------|
 B|--------------7--x-x-x-x--------------------10--x-x-x--x--x--------------|
F#|-------3------3--5/7-7-7-------------3------7---5/7\5--3--2--------------|
 B|-0h3h7---7-5--3----------------0h3h7---7-5--7----------------------------|

C#|-------------------------------------------------------------------------|
 G|-------------------------------------------------------------------------|
 E|-----12/14-14-14-16-17-----12/14-14-14--14\12-12-----12/14-14-14-16-17---|
 B|--3--x--x--x--x--x--x---7--x--x--x--x---x--x--x---3--x--x--x--x--x--x----|
F#|--3--10/12-12-12-14-15--7--10/12-12-12--12\10-10--3--10/12-12-12-14-15---|
 B|--3---------------------7-------------------------3----------------------|
  |                                                                         |
C#|---------------------------------------------------------------------(x2)|
 G|-------------------------------------------------------------------------|
 E|-----12/14-14-14---9-10-9h10-0-7-5-4h5p4---------------------------------|
 B|--7--x--x--x--x----------------------------------------------------------|
F#|--7--10/12-12-12---------------------------------------------------------|
 B|--7----------------------------------------------------------------------|

SWEEPING
C#|-------17h19p17-------------17h19p17------------17h19p17-----------------|
 G|-----17--------17---------17--------17--------17--------17---------------|
 E|---17------------17-----17------------17----17------------17-------------|
 B|-19----------------19-19----------------19-19---------------19-----------|
F#|-------------------------------------------------------------------------|
 B|-------------------------------------------------------------------------|

C#|-------17h19h17------------19h20p19-17------------19h20p19-17------------|
 G|-----17--------17--------17-----------17--------17-----------17----------|
 E|---17------------17----17---------------17----17---------------17--------|
 B|-19----------------19-19------------------19-19------------------19------|
F#|-------------------------------------------------------------------------|
 B|-------------------------------------------------------------------------|

C#|-------19h20p19-17-------------20h22p19-17-------------17h19p17----------|
 G|-----17-----------17---------17-----------17---------17--------17--------|
 E|---17---------------17-----17---------------17-----17------------17------|
 B|-19-------------------19-19-------------------19-19----------------19----|
F#|-------------------------------------------------------------------------|
 B|-------------------------------------------------------------------------|

C#|-------17h19p17------------17h19p17-------------17h19p17-----------------|
 G|-----17--------17--------17--------17---------17--------17---------------|
 E|---17------------17----17------------17-----17------------17-------------|
 B|-19---------------19-19----------------19-19----------------19-----------|
F#|-------------------------------------------------------------------------|
 B|-------------------------------------------------------------------------|

C#|-------19h20p19-17-------------19h20p19-17-------------------------------|
 G|-----17-----------17---------17-----------17---------17------------------|
 E|---17---------------17-----17---------------17-----17--9-10-9h10-0-7-5-4h|
 B|-19-------------------19-19-------------------19-19----------------------|
F#|-------------------------------------------------------------------------|
 B|-------------------------------------------------------------------------|

TAPPING
C#|-t12p8p5h8-(x6)---10p7p3h7-(x2)---(x4)-----------------------------------|
 G|-------------------------------------------------------------------------|
 E|-----------------------------------------9-10-9h10-0-7-5-4h5p4-----------|
 B|-------------------------------------------------------------------------|
F#|-------------------------------------------------------------------------|
 B|-------------------------------------------------------------------------|

C#|-------------------------------------------------------------------------|
 G|-------------------------------------------------------------------------|
 E|-----12/14-14-14-16-17-----12/14-14-14--14\12-12-----12/14-14-14-16-17---|
 B|--3--x--x--x--x--x--x---7--x--x--x--x---x--x--x---3--x--x--x--x--x--x----|
F#|--3--10/12-12-12-14-15--7--10/12-12-12--12\10-10--3--10/12-12-12-14-15---|
 B|--3---------------------7-------------------------3----------------------|
  |                                                                         |
C#|-------------------------------------------------------------------------|
 G|-------------------------------------------------------------------------|
 E|-----12/14-14-14---9-10-9h10-0-7-5-4h5p4---------------------------------|
 B|--7--x--x--x--x----------------------------------------------------------|
F#|--7--10/12-12-12---------------------------------------------------------|
 B|--7----------------------------------------------------------------------|


************************************

| /   slide up
| \   slide down
| h   hammer-on
| p   pull-off
| ~   vibrato
| +   harmonic
| x   Mute note
| b   Bend
| pb  Pre-bend
| br  Bend release
| pbr Pre-bend release
| brb Bend release bend

************************************
Tap to rate this tab
# A B C D E F G H I J K L M N O P Q R S T U V W X Y Z