Song name
# A B C D E F G H I J K L M N O P Q R S T U V W X Y Z

Parkway Drive - Dark Days tab

----------------------------------------------------------------------------
                           Parkway Drive - Dark Days
----------------------------------------------------------------------------

Tabbed by: Metalrock4ever

Tuning: BF#BEGC

This has been tabbed in time with the music. So each new phrase (named as Riffs) is the
next phrase on the track.

Intro/Riff 1
(Play this with palm mute)
C|------------------------------------|
G|-----------------1----1-1-3-3---5---|
E|----2-2-3----3-3--------------2---5-|
B|-0~-------0~-------0~---------------|  x4
F|------------------------------------|
B|------------------------------------|

Rhythm Guitar:
C|-------------------------|
G|-------------------------|
E|-------------------------|
B|-0~-0000-0000--0000-0000-|
F|-0~-0000-0000--0000-0000-|
B|-0~-0000-0000--0000-0000-|


Riff 2
C|--------------------|
G|----------10----8---|
E|-------------10---9-|
B|-00-00-00-----------|
F|-00-00-00-----------|
B|-00-00-00-----------|

Solo Part:
C|------------------------------------|
G|-----------------1----1-1-3-3---5---|
E|----2-2-3----3-3--------------2---5-|
B|-0~-------0~-------0~---------------|  x4
F|------------------------------------|
B|------------------------------------|


Riff 3:
C|--------|
G|----10~-|
E|----9~--|
B|-8~-----|
F|-8~-----|
B|-8~-----|


Riff 4:
C|---------------------------------------|
G|---------------------------------------|
E|---------------------------------------|
B|-0-3-5-7-5-7-8-0-2-3~-0000-2-3-7-5-3-2-|   x3
F|----------------------0000-------------|
B|----------------------0000-------------|

C|-------------------------|
G|-------------------------|
E|-------------------------|
B|-0-3-5-7-5-7-8-0-2-3~----|
F|----------------------0~-|
B|-------------------------|


Riff 5
C|--------------------------------|
G|--------------------------------|
E|--------------------------------|
B|-00-88-1010-7-3-5-2--00-88-1010-|   x2
F|-00-88-1010-7-3-5-2--00-88-1010-|
B|-00-88-1010-7-3-5-2--00-88-1010-|

Solo Part:
C|------------------|
G|------------------|
E|---0-2---2-3------|
B|-0-----0-----3-2~-|
F|------------------|
B|------------------|


Riff 6:
(Listen to the music for the rhyhtm. You can play chords or one note)
C|---------------------------------------|
G|---------------------------------------|
E|---------------------------------------|
B|---------------00--0-0-0-00-0-00-0-0-0-|
F|---------------00--0-0-0-00-0-00-0-0-0-|
B|-5-7-8-0-5-7-8-00--0-0-0-00-0-00-0-0-0-|

C|----------------------------------------|
G|----------------------------------------|
E|----------------------------------------|
B|-5-7-8-0-5-7-8-00--0-0-0-00-0-00-5-00-7-|
F|---------------00--0-0-0-00-0-00-5-00-7-|
B|---------------00--0-0-0-00-0-00-5-00-7-|

C|-------------------------------|
G|-------------------------------|
E|-------------------------------|
B|-8~-5~-7-3-0-0-0-00-0-00-0-0-0-|  x2
F|-8~-5~-7-3-0-0-0-00-0-00-0-0-0-|
B|-8~-5~-7-3-0-0-0-00-0-00-0-0-0-|

C|-------|
G|-------|
E|-------|
B|-8~-7~-|
F|-8~-7~-|
B|-8~-7~-|


Riff 7:
C|---------------------------------------|
G|---------------------------------------|
E|---------------------------------------|
B|-0-3-5-7-5-7-8-0-2-3~-0000-2-3-7-5-3-2-|   x3
F|----------------------0000-------------|
B|----------------------0000-------------|

C|-------------------------|
G|-------------------------|
E|-------------------------|
B|-0-3-5-7-5-7-8-0-2-3~----|
F|----------------------0~-|
B|-------------------------|


Riff 8:
C|--------------------------------|
G|--------------------------------|
E|--------------------------------|
B|-00-88-1010-7-3-5-2--00-88-1010-|  x2
F|-00-88-1010-7-3-5-2--00-88-1010-|
B|-00-88-1010-7-3-5-2--00-88-1010-|

Solo Part:
C|------------------|
G|------------------|
E|---0-2---2-3------|
B|-0-----0-----3-2~-|
F|------------------|
B|------------------|


Riff 9:
C|-------------------------------|
G|-------------------------------|
E|-------------------------------|
B|-8~-5~-7-3-0-0-0-00-0-00-0-0-0-|  
F|-8~-5~-7-3-0-0-0-00-0-00-0-0-0-|
B|-8~-5~-7-3-0-0-0-00-0-00-0-0-0-|

C|--------------------------------------|
G|--------------------------------------|
E|--------------------------------------|
B|-8~-5~-7-3-0-0-0-00-0-00-0-0-0-5-00-7-|
F|-8~-5~-7-3-0-0-0-00-0-00-0-0-0-5-00-7-|
B|-8~-5~-7-3-0-0-0-00-0-00-0-0-0-5-00-7-|


Bridge:
C|-------------------------------|
G|-------------------------------|
E|-------------------------------|
B|-8~-5~-7-3-0-0-0-00-0-00-0-0-0-|   x2
F|-8~-5~-7-3-0-0-0-00-0-00-0-0-0-|
B|-8~-5~-7-3-0-0-0-00-0-00-0-0-0-|

Solo 1:
C|-----------------------------------------------------8~-10-8-|
G|-----------8---10---6---8---10---6---8---10--11-10-8---------|
E|-------------7----7---7---7----7---7---7---------------------|
B|-5~-7-3-5~---------------------------------------------------|
F|-------------------------------------------------------------|
B|-------------------------------------------------------------|

C|--------------------------------------------|
G|-----------8---10---6---8---10---6---8---10-|
E|-------------7----7---7---7----7---7---7----|
B|-5~-7-3-5~----------------------------------|
F|--------------------------------------------|
B|--------------------------------------------|

Solo 2:
(Wait until you play)
C|-----------15----17----13----15----17----13----15----17-|
G|--------------15----15----15----15----15----15----15----|
E|--------------------------------------------------------|
B|--------------------------------------------------------|  x2
F|--------------------------------------------------------|
B|--------------------------------------------------------|

Riff 10:
C|---------------------|
G|---------------------|
E|---------------------|
B|---------------------|  x4
F|---------------------|
B|-0000-0000-0000-1111-|

C|---------------------|
G|---------------------|
E|---------------------|
B|---------------------|
F|---------------------|
B|-0000-0000-0000-0000-|

Solo Part:
C|-----------------|
G|-----------------|
E|-----------------|
B|-2-3b~-2h3h2h3h2-|  x3
F|-----------------|
B|-----------------|


Riff 11:
C|------------------------------------|
G|-----------------1----1-1-3-3---5---|
E|----2-2-3----3-3--------------2---5-|
B|-0~-------0~-------0~---------------|  
F|------------------------------------|
B|------------------------------------|

C|-------------------|
G|-----------------1-|
E|----2-2-3----3-3---|
B|-0~-------0~-------|  
F|-------------------|
B|-------------------|


Riff 12:
C|---------------------------|
G|----------------------\10+-|
E|---------------------------|
B|-00-00-00----00-00-00------|
F|-00-00-00----00-00-00------|
B|-00-00-00----00-00-00------|

Rhythm Guitar 2:
C|---------------------------|
G|---------------------------|
E|----------------------/10+-|
B|-00-00-00----00-00-00------|
F|-00-00-00----00-00-00------|
B|-00-00-00----00-00-00------|


Riff 13:
C|------------------------------------------------------------------|
G|-------------------------10----8----------------------------------|
E|----------------------------10---9--------------------------------|
B|-0-0-000-0-0-000-0-0-000-----------0-0-000-0-0-000-0-0-000-8~-10~-|
F|-0-0-000-0-0-000-0-0-000-----------0-0-000-0-0-000-0-0-000-8~-10~-|
B|-0-0-000-0-0-000-0-0-000-----------0-0-000-0-0-000-0-0-000-8~-10~-|

Outro:
C|---------------------------------|
G|---------------------------------|
E|---------------------------------|
B|-0-0-000-0-0-000-0-0-000-000-000-|  x3 
F|-0-0-000-0-0-000-0-0-000-000-000-|
B|-0-0-000-0-0-000-0-0-000-000-000-|

C|----------|
G|----------|
E|----------|
B|-00-00-00-|
F|-00-00-00-|
B|-00-00-00-|

************************************

| /   slide up
| \   slide down
| h   hammer-on
| ~   vibrato
| +   harmonic
| x   Mute note
| b   Bend

************************************

If you have any comments/corrections, please say in either the comments box or leave me 
a message.
Good luck and enjoy!
Tap to rate this tab
 
# A B C D E F G H I J K L M N O P Q R S T U V W X Y Z