Song name
# A B C D E F G H I J K L M N O P Q R S T U V W X Y Z

Parkway Drive - Old Ghosts New Regrets tab

***admins please change title to 'Old Ghost New Regrets' thank you

PARKWAY DRIVE

OLD GHOST NEW REGRETS

A#-F-A#-D#-G-C


ALBUM VERSION

TABBED BY-andherembrace

L
----------------------------------------------------------------------|
----------------------------------------------------------------------|
--------------------------------------------------------------/\------|
--/\--------------/\--------------/\--------------------/\--121312----|
121312----------121312----------121312------------/\--121315----------|
------15-0|-0-0-------15-0|-0-0-------15-0|-0-0-121315------------17--|
R
---------------------------------------------------------------|
---------------------------------------------------------------|
---------------------------------------------------------------|
---------------------------------------------------------------|
-0--------------------------------------------------\----------|
-0------------------------------------------------PS\----------|


--------------------------------------------------------------------------|
--------------------------------------------------------------------------|
--------------------------------------------------------------------------|
--/\--------------/\--------------/\--------------------------------------|
121312----------121312----------121312------------------------------------|
------15-0|-0-0-------15-0|-0-0-------15-0|-0-0-13-13-13-13-13-13-13-13-13|

---------------------------------------------------------------------------|
---------------------------------------------------------------------------|
---------------------------------------------------------------------------|
---------------------------------------------------------------------------|
-0----------------0--------------0-----------------------------------------|
-0---|------------0---|----------0---|----------13-13-13-13-13-13-13-13-13-|




B
----------------------------------------------------------------------|
----------------------------------------------------------------------|
--------------------------------------------------------------/\------|
--/\--------------/\--------------/\--------------------/\--121312----|
121312----------121312----------121312------------/\--121315----------|
------15-0|-0-0-------15-0|-0-0-------15-0|-0-0-121315------------17--|

---------------------------------------------------------------------|
---------------------------------------------------------------------|
---------------------------------------------------------------------|
--/\---------------/\-------------/\---------------------------------|
121312----------121312----------121312-------------------------------|
------15-0|-0-0-------15-0|-0-0-------15-0|-0-0-13-13-13-13-13-13-13-|


---------------------------------------------------------------------|
---------------------------------------------------------------------|
--------------------------------------------------------------/\-----|
--/\--------------/\--------------/\--------------------/\--121312---|
121312----------121312----------121312------------/\--121315---------|
------15-0|-0-0-------15-0|-0-0-------15-0|-0-0-121315------------17-|

-------------------------------------------------|
-------------------------------------------------|
-------------------------------------------------|
--/\--------------/\--------------/\-------------|
121312----------121312----------121312-----------|
------15-0|-0-0-------15-0|-0-0-------15-0|-0-0--|

--------------------------------------------------|
--------------------------------------------------|
--------------------------------------------------|
--------------------------------------------------|
--------------------------------------------------|
-13-13-13~--13-13-13~--13-13-13~--13-13-13~--12~--|






--------------------------------------------------------------|
--------------------------------------------------------------|
------------------------------------------------/\------------|
-----------------------------------------/\---121312----------|
-0---------------------------------/\--121315-----------------|
-0-------0---0-0------0-0-0-0----121315--------------17--13~--|
         *   *        * * *   
---------------------------------------------------------------|
---------------------------------------------------------------|
---------------------------------------------------------------|
---------------------------------------------------------------|
-0-------------------------------------------------------------|
-0-------0---0-0------0-0-0-0----13-13-13-13-13-13-13-13-12-12~|
         *   *        * * * 

--------------------------------------------------------------|
--------------------------------------------------------------|
------------------------------------------------/\------------|
-----------------------------------------/\---121312----------|
-0---------------------------------/\--121315-----------------|
-0-------0---0-0------0-0-0-0----121315--------------17--13~--|
         *   *        * * *  

---------------------------------------------------------------|
---------------------------------------------------------------|
---------------------------------------------------------------|
---------------------------------------------------------------|
-0-------------------------------------------------------------|
-0-------0---0-0------0-0-0-0----13-13-13-13-13-13-13-13-13~~~~|
         *   *        * * *  

----------------------------|
----------------------------|
----2steps------------------|
----_______________---------|
---)--------------(---------|
-13-------------------------|




------------------------------------------|
------------------------------------------|
------------------------------------------|
------------------------------------------|
-0000000---0--00-00--000000--00-0-00-00---|
-0000000---0--00-00--000000--00-0-00-00---|
 *******   *  ** **  ******  ** * ** **
------------------------------------------|
------------------------------------------|
------------------------------------------|
------------------------------------------|
-0000000---0--00-00--000000--00-0-00-00---|
-0000000---0--00-00--000000--00-0-00-00---|
 *******   *  ** **  ******  ** * ** **

------------------------------------------|
------------------------------------------|
------------------------------------------|
------------------------------------------|
-0000000---0--00-00--000000--00-0-00-00---|
-0000000---0--00-00--000000--00-0-00-00---|
 *******   *  ** **  ******  ** * ** **
------------------------------------------|
------------------------------------------|
------------------------------------------|
------------------------------------------|
-0000000---0--00-00--000000--00-0-00-00---|
-0000000---0--00-00--000000--00-0-00-00---|
 *******   *  ** **  ******  ** * ** **



----------------------------------------------------------------|
----------------------------------------------------------------|
----------------------------------------------------------------|
--/\--------------/\--------------/\----------------------------|
121312----------121312----------121312--------------------------|
------15-0|-0-0-------15-0|-0-0-------15-0|-0-0-13-13-13-13-13--|




B
----------------------------------------------------------------------|
----------------------------------------------------------------------|
--------------------------------------------------------------/\------|
--/\--------------/\--------------/\--------------------/\--121312----|
121312----------121312----------121312------------/\--121315----------|
------15-0|-0-0-------15-0|-0-0-------15-0|-0-0-121315------------17--|

---------------------------------------------------------------------|
---------------------------------------------------------------------|
---------------------------------------------------------------------|
--/\---------------/\-------------/\---------------------------------|
121312----------121312----------121312-------------------------------|
------15-0|-0-0-------15-0|-0-0-------15-0|-0-0-13-13-13-13-13-13-13-|


---------------------------------------------------------------------|
---------------------------------------------------------------------|
--------------------------------------------------------------/\-----|
--/\--------------/\--------------/\--------------------/\--121312---|
121312----------121312----------121312------------/\--121315---------|
------15-0|-0-0-------15-0|-0-0-------15-0|-0-0-121315------------17-|

-------------------------------------------------|
-------------------------------------------------|
-------------------------------------------------|
--/\--------------/\--------------/\-------------|
121312----------121312----------121312-----------|
------15-0|-0-0-------15-0|-0-0-------15-0|-0-0--|

--------------------------------------------------------------|
--------------------------------------------------------------|
--------------------------------------------------------------|
--------------------------------------------------------------|
----------------------------------------8--5--10--7-----------|
13-13-13~-13-13-13~-13-13-13~-13-13-13~-8--5--10--7-12~~~~----|




---------------------------------------------------------------|
---------------------------------------------------------------|
---------------------------------------------------------------|
---------------------------------------------------------------|
-0-------------------------------------------------------------|
-0-------------------------------------------------------------|





L
----------------------------------------------------|
----------------------------------------------------|
----------------------------------------------------|
----------------------------------------------------|
----------------------------------------------------|
-12~~~-0--12~~~-0----0--0-0--0-0--0-0-0-0--0--0-0---|
R                    *  * *  * *  * * * *  *  * *
----------------------------------------------------|
----------------------------------------------------|
----------------------------------------------------|
----------------------------------------------------|
----------------------------------------------------|
----------12~~~-0-----------------------------------|

L
-----------------------------------------------|
-----------------------------------------------|
-----------------------------------------------|
-----------------------------------------------|
-----------------------------------------------|
-12~~~-0--12~~~-0------0--0-0--0-0--0-0-0-0--0-|
R                      *  * *  * *  * * * *  *
--------------------------------------------|
--------------------------------------------|
--------------------------------------------|
--------------------------------------------|
--------------------------------------------|
---------12~~~--0---------------------------|


L
----------------------------------------------------|
----------------------------------------------------|
----------------------------------------------------|
----------------------------------------------------|
----------------------------------------------------|
-12~~~-0-------------0--0-0--0-0--0-0-0-0--0--0-0---|
R                    *  * *  * *  * * * *  *  * *
----------------------------------------------------|
----------------------------------------------------|
----------------------------------------------------|
----------------------------------------------------|
----------------------------------------------------|
-12~~~-0--12~~~-0---------------------------------|



L
---------------------------------------------|
---------------------------------------------|
---------------------------------------------|
---------------------------------------------|
------------------------8--5--10--7----------|
-12~~~--0---------------8--5--10--7----------|
R                    
---------------------------------------------|
---------------------------------------------|
---------------------------------------------|
---------------------------------------------|
-----------------------8--5--10--7-----------|
-12~~~--0--12~~~--0----8--5--10--7-----------|


B
--------------------------------------------------------|
--------------------------------------------------------|
--------------------------------------------------------|
--------------------------------------------------------|
--------------------------------------------------------|
-12~~~--0--12~~~--0------0--0-0--0-0--0-0-0-0--0--0-0---|
                         *  * *  * *  * * * *  *  * *

--------------------------------------------|
--------------------------------------------|
--------------------------R ONLY------------|
--------------------------------------------|
---------------------------------8--5--10---|
-12~~~--0--12~~~--0------00-0-0--8--5--10---|
                         ** * *  


------------------------------------------|
------------------------------------------|
------------------------------------------|
------------------------------------------|
-0000000---0--00-00--000000--00-0-00-00---|
-0000000---0--00-00--000000--00-0-00-00---|
 *******   *  ** **  ******  ** * ** **
------------------------------------------|
------------------------------------------|
------------------------------------------|
------------------------------------------|
-0000000---0--00-00--000000--00-0-00-00---|
-0000000---0--00-00--000000--00-0-00-00---|
 *******   *  ** **  ******  ** * ** **

------------------------------------------|
------------------------------------------|
------------------------------------------|
------------------------------------------|
-0000000---0--00-00--000000--00-0-00-00---|
-0000000---0--00-00--000000--00-0-00-00---|
 *******   *  ** **  ******  ** * ** **
----------------------------------|
----------------------------------|
----------------------------------|
----------------------------------|
-0000000---0--00-00--8--5--10--7--|
-0000000---0--00-00--8--5--10--7--|
 *******   *  ** **  


slow
------------------------------------------------|
------------------------------------------------|
------------------------------------------------|
------------------------------------------------|
-0-0-0-0-0---0--00-00---0-0-0-0-0--00-0-00-00---|
-0-0-0-0-0---0--00-00---0-0-0-0-0--00-0-00-00---|
 * * * * *   *  ** **   * * * * *  ** * ** **


L
------------------------------------------------------------|
------------------------------------------------------------|
------------------------------------------------------------|
------------------------------------------------------------|
-0-0-0-0-0---0--00-00-------------------------------------0-|
-0-0-0-0-0---0--00-00--8~--5~--10~--7~--12-12-12-12-12-12-0-|
 * * * * *   *  ** **   
R
------------------------------------------------------------|
------------------------------------------------------------|
------------------------------------------------------------|
------------------------------------------------------------|
-0-0-0-0-0---0--00-00-------------------------------------0-|
-0-0-0-0-0---0--00-00--12~-8~--14~--10--15-15-15-14-14-14-0-|
 * * * * *   *  ** **
Tap to rate this tab
# A B C D E F G H I J K L M N O P Q R S T U V W X Y Z