Song name
# A B C D E F G H I J K L M N O P Q R S T U V W X Y Z

Parkway Drive - The Slow Surrender tab

PARKWAY DRIVE

THE SLOW SURRENDER

B-F#-B-E-G#-C#


TABBED BY andherembrace




intro is played on bass

0:07
---------------------------------------------------------------|
---------------------------------------------------------------|
--7------------------------------------------------------------|
--5------------------------------------------------------------|
--5------------------------------------------------------------|
---------------------------------------------------------------|


0:15
 B                       L           R          L      R     B
----------------------------------------------------------------------|
----------------------------------------------------------------------|
----------------------------------------------------------------------|
-5-1---------------------5-1---7-3---3-5---5-0---5-1---7-3------------|
-5-1---------------------5-1---7-3---3-5---5-0---5-1---7-3------------|
-5-1---------------------5-1---7-3---3-5---5-0---5-1---7-3---3-5~-3-5~|



0:30

---------------------------------------------------------|
---------------------------------------------------------|
---------------------------------------------------------|
-5-1---7-3---3-5---5-0---5-1---7-3-----------------------|
-5-1---7-3---3-5---5-0---5-1---7-3-----------------------|
-5-1---7-3---3-5---5-0---5-1---7-3---3-5~-3-5~-3-5~------|


---------------------------------------------------------|
---------------------------------------------------------|
--7------------------------------------------------------|
--5------------------------------------------------------|
--5------------------------------------------------------|
---------------------------------------------------------|


---------------------------------------------------------|
---------------------------------------------------------|
---------------------------------------------------------|
-5-1---7-3---3-5---5-0-----------------------------------|
-5-1---7-3---3-5---5-0-----------------------------------|
-5-1---7-3---3-5---5-0---5-1-1-1-7-3-3-3--3-5~-3-5~-3-5~-|
                         * * * * * * * * 


0:52

1
--------------------------------------------------------------|
--------------------------------------------------------------|
--------------------------------------7-----------------------|
-8-5-7-8--10-8-7-8--10-8-7-5--7-5-7-8---8-7-8-10-8-7-5--------|
--------------------------------------------------------------|
--------------------------------------------------------------|
2
--------------------------------------------------------------|
--------------------------------------------------------------|
--------------------------------------------------------7-----|
-5------------------------------------------------------X-----|
-5------------------------------------------------------5-----|
-5------------------------------------------------------------|

1
--------------------------------------------------------------|
--------------------------------------------------------------|
--------------------------------------7-----------------------|
-8-5-7-8--10-8-7-8--10-8-7-5--7-5-7-8---8-7-8-10-8-7-5--------|
--------------------------------------------------------------|
--------------------------------------------------------------|
2
--------------------------------------------------------------|
--------------------------------------------------------------|
-------------------------------------------------------8--7---|
-3-----------------------------------------------------X--X---|
-3-----------------------------------------------------6--5---|
-3------------------------------------------------------------|

1
--------------------------------------------------------------|
--------------------------------------------------------------|
--------------------------------------7-----------------------|
-8-5-7-8--10-8-7-8--10-8-7-5--7-5-7-8---8-7-8-10-8-7-5--------|
--------------------------------------------------------------|
--------------------------------------------------------------|
2
---------------------------------------------------------_----|
--------------------------------------------------------/ \---|
-------------------------------------------------------7-810--|
-5-----------------------------------------------------X-X-X--|
-5-----------------------------------------------------5/6/8--|
-5------------------------------------------------------------|

1
---------------------------------------------------------------------|
---------------------------------------------------------------------|
-------------------------------------7-------------------------------|
8-5-7-8--10-8-7-8--10-8-7-5--7-5-7-8--8-7-8-10-8-7-5-10-8-7-8-8-7-5-7|
---------------------------------------------------------------------|
---------------------------------------------------------------------|
2
---------------------------------------------------------------------|
---------------------------------------------------------------------|
---------------------------------------------------------------------|
-3-------------------------------------------------------------------|
-3-------------------------------------------------------------------|
-3-----------------------------------5-5-5-5-7-5-5-5-9-5-5-5-7-5-5-5-|
                                     * * * * * * * * * * * * * * * *


1:06

BEND ONLY THE 14 THEN UNBEND IN TIME TO
STRIKE AFTER 11
1
-------------------------------------------------------------------|
-11-)---11-------11-)--11-------11-)--11-------------------^-------|
-14-------14-12--14------14-12--14------14-12---14-12----1012-10---|
------------------------------------------------------12--------12-|
-------------------------------------------------------------------|
-------------------------------------------------------------------|
2
--------3-3-3----------3-3-3------------------------------------|
--------3-3-3----------3-3-3---------8-8-8----8--8--8--8--8-----|
-------------------------------------7-7-7---10-10-10-10-10-----|
----------------------------------------------8--8--8--8--8-----|
-1--------------3----------------5---------8--------------------|
-1--------------3----------------5---------8--------------------|

1
-------------------------------------------------)-PB-PB-------|
-11-)---11-------11-)--11-------11-)--11-------15)-15-15-------|
-14-------14-12--14------14-12--14------14-12--18--18-18-17----|
-----------------------------------------------------------17--|
---------------------------------------------------------------|
---------------------------------------------------------------|
2
--------3-3-3----------3-3-3------------------------------------|
--------3-3-3----------3-3-3---------8-8-8----8--8--8--8--8-----|
-------------------------------------7-7-7---10-10-10-10-10-----|
----------------------------------------------8--8--8--8--8-----|
-1--------------3----------------5---------8--------------------|
-1--------------3----------------5---------8--------------------|


1
-------------------------------------------------------------------|
-11-)---11-------11-)--11-------11-)--11-------------------^-------|
-14-------14-12--14------14-12--14------14-12---14-12----1012-10---|
------------------------------------------------------12--------12-|
-------------------------------------------------------------------|
-------------------------------------------------------------------|
2
--------3-3-3----------3-3-3------------------------------------|
--------3-3-3----------3-3-3---------8-8-8----8--8--8--8--8-----|
-------------------------------------7-7-7---10-10-10-10-10-----|
----------------------------------------------8--8--8--8--8-----|
-1--------------3----------------5---------8--------------------|
-1--------------3----------------5---------8--------------------|

1
-------------------------------------------------)-PB-PB-------|
-11-)---11-------11-)--11-------11-)--11-------15)-15-15-------|
-14-------14-12--14------14-12--14------14-12--18--18-18-------|
---------------------------------------------------------------|
---------------------------------------------------------------|
---------------------------------------------------------------|
2
--------3-3-3----------3-3-3-----------------------------------|
--------3-3-3----------3-3-3---------8-8-8----8--8--8--8--8----|
-------------------------------------7-7-7---10-10-10-10-10----|
----------------------------------------------8--8--8--8--8----|
-1--------------3----------------5---------8-------------------|
-1--------------3----------------5---------8-------------------|



1:29

L
---------------------------------------------------------------------|
---------------------------------------------------------------------|
---------------------------------------------------------------------|
---------------------------------------------------------------------|
---------------------------------------------------------------------|
-3-5-5--5~--3-5--10-10-10-10-10-10-10--3-5-5--5~--3-5--3-5-7-8-7-5-3-|
                  *  *  *  *  *  *  *                  * * * * * * *
R
---------------------------------------------------------------------|
---------------------------------------------------------------------|
---------------------------------------------------------------------|
---------------------------------------------------------------------|
---------------------------------------------------------------------|
-3-5-5--5~--3-5---7--7--7--7--7--7--7--3-5-5--5~--3-5--3-5-7-8-7-5-3-|
                  *  *  *  *  *  *  *                  * * * * * * *

L
---------------------------------------------------------------------|
---------------------------------------------------------------------|
---------------------------------------------------------------------|
---------------------------------------------------------------------|
---------------------------------------------------------------------|
-3-5-5--5~--3-5--10-10-10-10-10-10-10--3-5-5--5~--3-5--3-5-7-8-7-5-3-|
                  *  *  *  *  *  *  *                  * * * * * * *
R
---------------------------------------------------------------------|
---------------------------------------------------------------------|
---------------------------------------------------------------------|
---------------------------------------------------------------------|
---------------------------------------------------------------------|
-3-5-5--5~--3-5---7--7--7--7--7--7--7--3-5-5--5~--3-5--3-5-7-8-7-5-3-|
                  *  *  *  *  *  *  *                  * * * * * * *

1:43

L
---------------------------------------------------------------|
---------------------------------------------------------------|
---------------------------------------------------------------|
---------------------------------------------------------------|
--------------------------------------------------------PH-----|
-3-5-5--5~-\------------3-5-5--5~-\-----877-877--121210-10~----|
                                        *** ***   * * *
R
---------------------------------------------------------------|
---------------------------------------------------------------|
---------------------------------------------------------------|
---------------------------------------------------------------|
-------------------------------------------------------PH------|
-3-5-5--5~-\------------3-5-5--5~-\-----553-553--8-8-7-7~------|
                                        *** ***  * * *



1:51
1
--------------------------------------------------------------|
--------------------------------------------------------------|
--------------------------------------7-----------------------|
-8-5-7-8--10-8-7-8--10-8-7-5--7-5-7-8---8-7-8-10-8-7-5--------|
--------------------------------------------------------------|
--------------------------------------------------------------|
2
--------------------------------------------------------------|
--------------------------------------------------------------|
--------------------------------------------------------7-----|
-5------------------------------------------------------X-----|
-5------------------------------------------------------5-----|
-5------------------------------------------------------------|


1
--------------------------------------------------------------|
--------------------------------------------------------------|
--------------------------------------7-----------------------|
-8-5-7-8--10-8-7-8--10-8-7-5--7-5-7-8---8-7-8-10-8-7-5--------|
--------------------------------------------------------------|
--------------------------------------------------------------|
2
--------------------------------------------------------------|
--------------------------------------------------------------|
-------------------------------------------------------8--7---|
-3-----------------------------------------------------X--X---|
-3-----------------------------------------------------6--5---|
-3------------------------------------------------------------|


1
--------------------------------------------------------------|
--------------------------------------------------------------|
--------------------------------------7-----------------------|
-8-5-7-8--10-8-7-8--10-8-7-5--7-5-7-8---8-7-8-10-8-7-5--------|
--------------------------------------------------------------|
--------------------------------------------------------------|
2
---------------------------------------------------------_----|
--------------------------------------------------------/ \---|
-------------------------------------------------------7-810--|
-5-----------------------------------------------------X-X-X--|
-5-----------------------------------------------------5/6/8--|
-5------------------------------------------------------------|


1
--------------------------------------------------------|
--------------------------------------------------------|
--------------------------------------------------------|
8-5-7-8--10-8-7-8--10-8-7-5--7-5-7-8--------------------|
---------------------------------------4-3-1------------|
---------------------------------------4-3-1-3-1-3------|
2                                      * * *
--------------------------------------------------------|
--------------------------------------------------------|
--------------------------------------------------------|
-3------------------------------------------------------|
-3-------------------------------------4-3-1------------|
-3-------------------------------------4-3-1-3-1-3------|
                                       * * *


2:07

B
-------------------------------------------------------------|
-------------------------------------------------------------|
-------------------------------------------------------------|
-00-000000-000000-0000-111-333-00-000000-0000----------------|
-00-000000-000000-0000-111-333-00-000000-0000-4-3-1----------|
-00-000000-000000-0000-111-333-00-000000-0000-4-3-1-3-1-3----|
 ** ****** ****** **** *** *** ** ****** **** * * *
-------------------------------------------------------------|
-------------------------------------------------------------|
-------------------------------------------------------------|
-00-000000-000000-0000-111-333-00-000000-0000----------------|
-00-000000-000000-0000-111-333-00-000000-0000-4-3-1----------|
-00-000000-000000-0000-111-333-00-000000-0000-4-3-1-3-1-3----|
 ** ****** ****** **** *** *** ** ****** **** * * *


----------------------------------------------------------|
----------------------------------------------------------|
----------------------------------------------------------|
-00-000000-000000-000000-000000-000000-0000---------------|
-00-000000-000000-000000-000000-000000-0000-4-3-1-3-1-3---|
-00-000000-000000-000000-000000-000000-0000-4-3-1-3-1-3---|
 ** ****** ****** ****** ****** ****** **** 
--------------------------------------------------------|
--------------------------------------------------------|
--------------------------------------------------------|
-00-000000-000000-000000-000000-000000-0000-------------|
-00-000000-000000-000000-000000-000000-0000-------------|
-00-000000-000000-000000-000000-000000-0000-3-5-3-5~-\--|
 ** ****** ****** ****** ****** ****** **** 



---------------------------------------------------------------|
---------------------------------------------------------------|
--7------------------------------------------------------------|
--5------------------------------------------------------------|
--5------------------------------------------------------------|
------------------------------------------3-5~-3-5~-3-5~-------|



2:47

--------------------------------------------------------|
--------------------------------------------------------|
-12------15-------15-14--15-14-10-12--------------------|
--X-------X--------X--X---X--X--X--X--------------------|
-10------13-------13\12--13\12--8/10--------------------|
----------------------------------------3-5~-3-5~-3-5~--|


-----------------------------------------------------|
-----------------------------------------------------|
-12------15-------15-14--15-14-10-12-----------------|
--X-------X--------X--X---X--X--X--X-----------------|
-10------13-------13\12--13\12--8/10----5-5-5-5------|
----------------------------------------5-5-5-5\-----|



3:02

---------------------------------------------------------------|
--11)--------10)---------11)--------10)------------------------|
--14---------13----------14---------13-------------------------|
---------------------------------------------------------------|
---------------------------------------------------------------|
---------------------------------------------------------------|
2
--------------------------------------------------------------------|
------------------------------------------------------------HHHHHHHH|
------------------------------------------------------------55555555|
------------------------------------------------------------55555555|
-5-----------3-----------5-----------3--3-3-3-3-3-3-3-3-3-3-HHHHHHHH|
-5-----------3-----------5-----------3--3-3-3-3-3-3-3-3-3-3---------|
                                        * * * * * * * * * * 


3:17

1
-------------------------------------------------------------------|
-11-)---11-------11-)--11-------11-)--11-------------------^-------|
-14-------14-12--14------14-12--14------14-12---14-12----1012-10---|
------------------------------------------------------12--------12-|
-------------------------------------------------------------------|
-------------------------------------------------------------------|
2
--------3-3-3----------3-3-3------------------------------------|
--------3-3-3----------3-3-3---------8-8-8----8--8--8--8--8-----|
-------------------------------------7-7-7---10-10-10-10-10-----|
----------------------------------------------8--8--8--8--8-----|
-1--------------3----------------5---------8--------------------|
-1--------------3----------------5---------8--------------------|

1
-------------------------------------------------)-PB-PB-------|
-11-)---11-------11-)--11-------11-)--11-------15)-15-15-------|
-14-------14-12--14------14-12--14------14-12--18--18-18-17----|
-----------------------------------------------------------17--|
---------------------------------------------------------------|
---------------------------------------------------------------|
2
--------3-3-3----------3-3-3------------------------------------|
--------3-3-3----------3-3-3---------8-8-8----8--8--8--8--8-----|
-------------------------------------7-7-7---10-10-10-10-10-----|
----------------------------------------------8--8--8--8--8-----|
-1--------------3----------------5---------8--------------------|
-1--------------3----------------5---------8--------------------|


1
-------------------------------------------------------------------|
-11-)---11-------11-)--11-------11-)--11-------------------^-------|
-14-------14-12--14------14-12--14------14-12---14-12----1012-10---|
------------------------------------------------------12--------12-|
-------------------------------------------------------------------|
-------------------------------------------------------------------|
2
--------3-3-3----------3-3-3------------------------------------|
--------3-3-3----------3-3-3---------8-8-8----8--8--8--8--8-----|
-------------------------------------7-7-7---10-10-10-10-10-----|
----------------------------------------------8--8--8--8--8-----|
-1--------------3----------------5---------8--------------------|
-1--------------3----------------5---------8--------------------|

1                                                )   )  )  )  )  )
-----------------------------------------------15)-15-15-15-15-15--|
-11-)---11-------11-)--11-------11-)--11-------18------------------|
-14-------14-12--14------14-12--14------14-12----------------------|
-------------------------------------------------------------------|
-------------------------------------------------------------------|
-------------------------------------------------------------------|
2
--------3-3-3----------3-3-3-----------------------------------|
--------3-3-3----------3-3-3---------8-8-8----8--8--8--8--8----|
-------------------------------------7-7-7---10-10-10-10-10----|
----------------------------------------------8--8--8--8--8----|
-1--------------3----------------5---------8-------------------|
-1--------------3----------------5---------8-------------------|


3:39

---------------------------------------------------------|
---------------------------------------------------------|
---------------------------------------------------------|
-5-1---7-3---3-5---5-0---5-1---7-3-----------------------|
-5-1---7-3---3-5---5-0---5-1---7-3-----------------------|
-5-1---7-3---3-5---5-0---5-1---7-3---3-5~-3-5~-3-5~------|

---------------------------------------------------------|
---------------------------------------------------------|
---------------------------------------------------------|
-5-1---7-3---3-5---5-0-----------------------------------|
-5-1---7-3---3-5---5-0-----------------------------------|
-5-1---7-3---3-5---5-0---5-1-1-1-7-3-3-3--3-5~-3-5~-3-5~-|
                         * * * * * * * * 


3:55
-------------------------------------------------------------------------|
-------------------------------------------------------------------------|
-------------------------------------------------------------------------|
-------------------------------------------------------------------------|
-------------------------------------------------------------------------|
-5-1-11-1-7-3-33-3-3-5-55-5-5-0-00-5-1-11-7-3-33-5555-7-5555-9-5555-3355-|
     **       **       **       **     **     ** **** * **** * **** ****


L
---------------------------------------------------------------------|
---------------------------------------------------------------------|
---------------------------------------------------------------------|
---------------------------------------------------------------------|
---------------------------------------------------------------------|
-5-1-11-1-7-3-33-3-3-5-55-5-5-0-00-5---5-1-1-1-7-3-3-3--3-5~-3-5~----|
     **       **       **       **     * * * * * * * *

R
-------------------------------------------------------------------|
-------------------------------------------------------------------|
-------------------------------------------------------------------|
-------------------------------------------------------------------|
-------------------------------------------------------------------|
-5-1------7-3-----3-5------5-0---------5-1-1-1-7-3-3-3--7-8~-7-8~--|
                                       * * * * * * * *





Tap to rate this tab
# A B C D E F G H I J K L M N O P Q R S T U V W X Y Z