Song name
# A B C D E F G H I J K L M N O P Q R S T U V W X Y Z

Parkway Drive - Swing tab

PARKWAY DRIVE

SWING

B-F#-B-E-G#-C#



TABBED BY andherembrace



L
-------------------------------------------------------------------|
-------------------------------------------------------------------|
---_-----------------_--------_----------__--------_---------------|
--/ \---------------/ \------/ \--------/  \------/ \--------------|
-5-8-5-------------5-8-5----5-8-5------7-10-7----5-8-5-------------|
-------000000000000-----0000------0000--------00-------000000000000|
       ************     ****      ****        **       ************
R
---------------------------------------------------------------|
---------------------------------------------------------------|
---------------------------------------------------------------|
---------------------------------------------------------------|
-0-----------------0-------0----------0---------0--------------|
-0---|-------------0--|----0--|-------0--|------0----|---------|


0:06
L
-----------------------------5-7-8--|
--------------------5-6-8-10--------|
-------------5-7--9-----------------|
-------5-7-8------------------------|
-5-7-8------------------------------|
------------------------------------|
R
----------------------------------------10-12-13--|
-----------------------------10-11-13-15----------|
-------------------10-12--14----------------------|
----------10-12-13--------------------------------|
-10-12-13-----------------------------------------|
--------------------------------------------------|

L
-----------------------------------------------------------------------|
-----------------------------------------------------------------------|
--_--------------------------------------------------------------------|
-/ \-------------------------------------------------------------------|
5-8-5------------------1010--88--77--3-------------5------5------------|
-----000000000000-12128----8---8---8-3-88-75-77-53-5-13-56--88-75-77-53|
     ************  * ** * ** *** ***   ** ** ** **   ** **  ** ** ** **
R
----------------------------------------------------------------------|
----------------------------------------------------------------------|
----------------------------------------------------------------------|
----------------------------------------------------------------------|
-0--------------------1010--88--77--3-------------5------5------------|
-0--|------------12128----8---8---8-3-88-75-77-53-5-03-56--88-75-77-53|
                  * ** * ** *** ***   ** ** ** **   ** **  ** ** ** **


0:13

B
-----------------------------------------|
-----------------------------------------|
-----------------------------------------|
-----------------------------------------|
-----------------------------------------|
-0-0000-0-00-0-00000000-0-35-88-75-77-53-|
   ****   **   ********   ** ** ** ** **                    

--------------------------------------------------------|
--------------------------------------------------------|
--------------------------------------------------------|
--------------------------------------------------------|
----------------------------5----------------7----------|
-0-0000-0-00-0-0000-3-5-7-8---8-7-5-5-7-8-10---10-8-7---|
   ****   **   **** * * * *   * * * * * *  *    * * *

-----------------------------------------|
-----------------------------------------|
-----------------------------------------|
-----------------------------------------|
-----------------------------------------|
-0-0000-0-00-0-00000000-0-35-88-75-77-53-|
   ****   **   ********   ** ** ** ** **  

-----------------------------------------|
-----------------------------------------|
-----------------------------------------|
-----------------------------------------|
-3--------------5------5-----------------|
-3--88-75-77-53-5-13-56--88-75-77-53-----|
    ** ** ** **   ** **  ** ** ** **


0:23

-------------------------------------------------------------------|
-------------------------------------------------------------------|
---_-----------------_--------_----------__--------_---------------|
--/ \---------------/ \------/ \--------/  \------/ \--------------|
-5-8-5-------------5-8-5----5-8-5------7-10-7----5-8-5-------------|
-------000000000000-----0000------0000--------00-------000000000000|
       ************     ****      ****        **       ************

L
-----------------------------5-7-8--|
--------------------5-6-8-10--------|
-------------5-7--9-----------------|
-------5-7-8------------------------|
-5-7-8------------------------------|
------------------------------------|
R
----------------------------------------10-12-13--|
-----------------------------10-11-13-15----------|
-------------------10-12--14----------------------|
----------10-12-13--------------------------------|
-10-12-13-----------------------------------------|
--------------------------------------------------|


-----------------------------------------------------------------------|
-----------------------------------------------------------------------|
--_--------------------------------------------------------------------|
-/ \-------------------------------------------------------------------|
5-8-5------------------1010--88--77--3-------------5------5------------|
-----000000000000-12128----8---8---8-3-88-75-77-53-5-13-56--88-75-77-53|
     ************  * ** * ** *** ***   ** ** ** **   ** **  ** ** ** **




0:34

---------------------------------------------------------------|
---------------------------------------------------------------|
---------------------------------------------------------------|
---------------------------------------------------------------|
---------------------------------------------------------------|
-0--0----0-|--0-00-00-0-00--00-0-0-0-00-0-0-0-000-000-00-0-0-0-|
              * ** ** * **  ** * * * ** * * * *** *** ** * * *

---------------------------------------------------------------|
---------------------------------------------------------------|
---------------------------------------------------------------|
---------------------------------------------------------------|
---------------------------------------------------------------|
-0--0----0-|--0-00-00-0-00--00-0-0-0-00-0-0-0-000-000-00-0-0-0-|
              * ** ** * **  ** * * * ** * * * *** *** ** * * *


0:47

L
--------------------------------------------------------------------|
--------------------------------------------------------------------|
--------------------------------------------------------------------|
-7-0-3-0-5-0-7-0-33-0-5-0-33-0--55--22--33--2-2----55--22--33--2-2--|
----------------------------------3---3---3-----3----3---3---3-----3|
--------------------------------------------------------------------|
 * * * * * * * * ** * * * ** *  *** *** *** * * *  *** *** *** * * *
R
---------------------------------------------------------------|
---------------------------------------------------------------|
---------------------------------------------------------------|
---------------------------------------------------------------|
---------------------------------------------------------------|
-0--0----0-|--0-00-00-0-00--00-0-0-0-00-0-0-0-000-000-00-0-0-0-|
              * ** ** * **  ** * * * ** * * * *** *** ** * * *

L
--------------------------------------------------------------------|
--------------------------------------------------------------------|
--------------------------------------------------------------------|
-7-0-3-0-5-0-7-0-33-0-5-0-33-0--55--22--33--2-2----55--22--33--2-2--|
----------------------------------3---3---3-----3----3---3---3-----3|
--------------------------------------------------------------------|
 * * * * * * * * ** * * * ** *  *** *** *** * * *  *** *** *** * * *
R
---------------------------------------------------------------|
---------------------------------------------------------------|
---------------------------------------------------------------|
---------------------------------------------------------------|
---------------------------------------------------------------|
-0--0----0-|--0-00-00-0-00--00-0-0-0-00-0-0-0-000-000-00-0-0-0-|
              * ** ** * **  ** * * * ** * * * *** *** ** * * *


1:00

L  0  VIBRATO=DEPRESS STRING IN FRONT OF NUT
--------------------------------------------------------------------|
-----------------------------------__-------------------------------|
-----------------------------------)(---------5-4-----5-4-----5-4---|
--0~~~~--2-3-5--3-2------2--------5----5~~-------7-5|----7-5|----7-5|
--------------------3------0----------------------------------------|
--------------------------------------------------------------------|
R
--------------------------------------------------------------------|
--------------------------------------------------------------------|
--------------------------------------------------------------------|
-5------------------7------3-----------5----------------------------|
-5------------------7------3-----------5----------------------------|
-5------------------7------3-----------5----------------------------|



1:10

  AFTER '5' ON 2ND STRING THE '7' ON THE 3RD IS HAMMERED ON
L NOT PICKED
---_--------------------------_-------------------------|
--/ \--5^------^-------------/ \--5^------^-------------|
-5-7-5---7-5--4-5-5-0----4--5-7-5---7-5--4-5-5-0--5-4---|
-----------------------7--------------------------------|
--------------------------------------------------------|
--------------------------------------------------------|
R
--------------------------------------------------------|
--------------------------------------------------------|
--------------------------------------------------------|
--7-------------------------3---------------------------|
--7-------------------------3------PS-\-----------------|
--7-------------------------3---------\-----------------|



1:14

-------------------------------------------------------------------|
-------------------------------------------------------------------|
---_-----------------_--------_----------__--------_---------------|
--/ \---------------/ \------/ \--------/  \------/ \--------------|
-5-8-5-------------5-8-5----5-8-5------7-10-7----5-8-5-------------|
-------000000000000-----0000------0000--------00-------000000000000|
       ************     ****      ****        **       ************

L
-----------------------------5-7-8--|
--------------------5-6-8-10--------|
-------------5-7--9-----------------|
-------5-7-8------------------------|
-5-7-8------------------------------|
------------------------------------|
R
----------------------------------------10-12-13--|
-----------------------------10-11-13-15----------|
-------------------10-12--14----------------------|
----------10-12-13--------------------------------|
-10-12-13-----------------------------------------|
--------------------------------------------------|



-----------------------------------------------------------------------|
-----------------------------------------------------------------------|
--_--------------------------------------------------------------------|
-/ \-------------------------------------------------------------------|
5-8-5------------------1010--88--77--3-------------5------5------------|
-----000000000000-12128----8---8---8-3-88-75-77-53-5-13-56--88-75-77-53|
     ************  * ** * ** *** ***   ** ** ** **   ** **  ** ** ** **


-----------------------------------------|
-----------------------------------------|
-----------------------------------------|
-----------------------------------------|
-----------------------------------------|
-0-0000-0-00-0-00000000-0-35-88-75-77-53-|
   ****   **   ********   ** ** ** ** **                    

--------------------------------------------------------|
--------------------------------------------------------|
--------------------------------------------------------|
--------------------------------------------------------|
----------------------------5----------------7----------|
-0-0000-0-00-0-0000-3-5-7-8---8-7-5-5-7-8-10---10-8-7---|
   ****   **   **** * * * *   * * * * * *  *    * * *

-----------------------------------------|
-----------------------------------------|
-----------------------------------------|
-----------------------------------------|
-----------------------------------------|
-0-0000-0-00-0-00000000-0-35-88-75-77-53-|
   ****   **   ********   ** ** ** ** **  

-----------------------------------------|
-----------------------------------------|
-----------------------------------------|
-----------------------------------------|
-3--------------5------5-----------------|
-3--88-75-77-53-5-13-56--88-75-77-53-----|
    ** ** ** **   ** **  ** ** ** **


1:35

---------------------------------------------------------------|
---------------------------------------------------------------|
---------------------------------------------------------------|
---------------------------------------------------------------|
---------------------------------------------------------------|
-0--0----0-|--0-00-00-0-00--00-0-0-0-00-0-0-0-000-000-00-0-0-0-|
              * ** ** * **  ** * * * ** * * * *** *** ** * * *

---------------------------------------------------------------|
---------------------------------------------------------------|
---------------------------------------------------------------|
---------------------------------------------------------------|
---------------------------------------------------------------|
-0--0----0-|--0-00-00-0-00--00-0-0-0-00-0-0-0-000-000-00-0-0-0-|
              * ** ** * **  ** * * * ** * * * *** *** ** * * *


L
--------------------------------------------------------------------|
--------------------------------------------------------------------|
--------------------------------------------------------------------|
-7-0-3-0-5-0-7-0-33-0-5-0-33-0--55--22--33--2-2----55--22--33--2-2--|
----------------------------------3---3---3-----3----3---3---3-----3|
--------------------------------------------------------------------|
 * * * * * * * * ** * * * ** *  *** *** *** * * *  *** *** *** * * *
R
---------------------------------------------------------------|
---------------------------------------------------------------|
---------------------------------------------------------------|
---------------------------------------------------------------|
---------------------------------------------------------------|
-0--0----0-|--0-00-00-0-00--00-0-0-0-00-0-0-0-000-000-00-0-0-0-|
              * ** ** * **  ** * * * ** * * * *** *** ** * * *

L
--------------------------------------------------------------|
--------------------------------------------------------------|
--------------------------------------------------------------|
-7-0-3-0-5-0-7-0-33-0-5-0-33-0--55--22--33--2-2----0-0-0-0-0--|
----------------------------------3---3---3-----3--0-0-0-0-0--|
---------------------------------------------------1-1-1-1-0--|
 * * * * * * * * ** * * * ** *  *** *** *** * * * 
R
---------------------------------------------------------------|
---------------------------------------------------------------|
---------------------------------------------------------------|
---------------------------------------------------0-0-0-0-0---|
---------------------------------------------------0-0-0-0-0---|
-0--0----0-|--0-00-00-0-00--00-0-0-0-00-0-0-0------1-1-1-1-0---|
              * ** ** * **  ** * * * ** * * * 


2:08

B
---------------------------------------------------------------|
---------------------------------------------------------------|
---------------------------------------------------------------|
--0------------------------------------------------------------|
--0------------------------------------------------------------|
--0------------------------------------------------------------|


---------------------------------------------------------------|
---------------------------------------------------------------|
---------------------------------------------------------------|
--0------------------------------------------------------------|
--0------------------------------------------------------------|
--0------------------------------------------------------------|


2:27

L
----------------------------------------------------------------|
----------------------------------------------------------------|
----------------------------------------------------------------|
-0--------------------------------------------------------------|
-0--------------------------------------------------------------|
-0--------------------------------------------------------------|

R W/OVER DUBBED 6TH STRING 12TH FRET HARMONICS
-----------------------------------------------------------------|
-----------------------------------------------------------------|
-----------------------------------------------------------------|
-----------------------------------------------------------------|
-----------------------------------------------------------------|
-000-0-0-000-000-0-0-000-000-0-0-000-0-0-000-000-0-0-000-000-0-0-|
 *** * * *** *** * * *** *** * * *** * * *** *** * * *** *** * *

B
-----------------------------------------------------------------|
-----------------------------------------------------------------|
-----------------------------------------------------------------|
-----------------------------------------------------------------|
-----------------------------------------------------------------|
-000-0-0-000-000-0-0-000-000-0-0-000-0-0-000-000-0-0-000-000-0-0-|
 *** * * *** *** * * *** *** * * *** * * *** *** * * *** *** * *



2:37

L
----------------------------------------------------------------------|
----------------------------------------------------------------------|
----------------------------------------------------------------------|
-----------------------------------------------------------_----------|
------/\--5------------/\--7------------/\---8------------/ \---12--10|
-0-0-0357---0-0-0-0-0-0578---0-0-0-0-0-07810---0-0-0-0-0-081012---0---|
 * *        * * * * *        * * * * *         * * * * *          *
R
----------------------------------------------------------------|
----------------------------------------------------------------|
----------------------------------------------------------------|
-0--------------------------------------------------------------|
-0--------------------------------------------------------------|
-0--------------------------------------------------------------|

L
----------------------------------------------------------------------|
----------------------------------------------------------------------|
----------------------------------------------------------------------|
-----------------------------------------------------------_----------|
------/\--5------------/\--7------------/\---8------------/ \---12--10|
-0-0-0357---0-0-0-0-0-0578---0-0-0-0-0-07810---0-0-0-0-0-081012---0---|
 * *        * * * * *        * * * * *         * * * * *          *
R
----------------------------------------------------------------|
----------------------------------------------------------------|
----------------------------------------------------------------|
----------------------------------------------------------------|
----------------------------------------------------------------|
----------------------------------------------------------------|



2:48
B
-----------------------------------------------------------------|
-----------------------------------------------------------------|
-----------------------------------------------------------------|
-----------------------------------------------------------------|
-----------------------------------------------------------------|
-000-0-000-000-0-0-000-000-0-0-0-000-0-000-000-0-0-000-000-0-0-0-|
 *** * *** *** * * *** *** * * * *** * *** *** * * *** *** * * *

-------------------------------------------------------------------|
-------------------------------------------------------------------|
-------------------------------------------------------------------|
-------------------------------------------------------------------|
-------------------------------------------------------------------|
-000-0-000-000-0-0-000-000-0-0-0-000-0-000-000-0-0-000-000-000-000-|
 *** * *** *** * * *** *** * * * *** * *** *** * * *** *** *** ***


2:58

----------------------------------------------------------------------|
----------------------------------------------------------------------|
----------------------------------------------------------------------|
-----------------------------------------------------------_----------|
------/\--5------------/\--7------------/\---8------------/ \---12--10|
-0-0-0357---0-0-0-0-0-0578---0-0-0-0-0-07810---0-0-0-0-0-081012---0---|
 * *        * * * * *        * * * * *         * * * * *          *

----------------------------------------------------------------------|
----------------------------------------------------------------------|
----------------------------------------------------------------------|
-----------------------------------------------------------_----------|
------/\--5------------/\--7------------/\---8------------/ \---12--10|
-0-0-0357---0-0-0-0-0-0578---0-0-0-0-0-07810---0-0-0-0-0-081012---0---|
 * *        * * * * *        * * * * *         * * * * *          *

3:08

L
-----------------------------------------------------------------------|
-----------------------------------------------------------------------|
-----------------------------------------------------------------------|
----------------------------------------_------------------__----------|
-----/\--5------------/\--7------------/ \---8------------/  \---12--10|
0-0-0357---0-0-0-0-0-0578---0-0-0-0-0-081012---0-0-0-0-0-0101213---0---|
* *        * * * * *        * * * * *          * * * * *           *
R
----------------------------------------------------------------------|
----------------------------------------------------------------------|
----------------------------------------------------------------------|
----------------------------------------------------------------------|
---------------------------------------------------------------8---7--|
-000-000---------000-000----------000-000----------000-000-------0----|
 *** ***         *** ***          *** ***          *** ***       *


L
-----------------------------------------------------------------------|
-----------------------------------------------------------------------|
-----------------------------------------------------------------------|
----------------------------------------_------------------__----------|
-----/\--5------------/\--7------------/ \---8------------/  \---12--10|
0-0-0357---0-0-0-0-0-0578---0-0-0-0-0-081012---0-0-0-0-0-0101213---0---|
* *        * * * * *        * * * * *          * * * * *           *
R
----------------------------------------------------------------------|
----------------------------------------------------------------------|
----------------------------------------------------------------------|
----------------------------------------------------------------------|
----------------------------------------------------------------8---7-|
-000-000-------0-0-000-000-------0-0-000-000-------0 0-000-000----0---|
 *** ***       * * *** ***       * * *** ***       * * *** ***    *


B
-----------------------------------------------------------------|
-----------------------------------------------------------------|
-----------------------------------------------------------------|
-----------------------------------------------------------------|
-----------------------------------------------------------------|
-000-0-0-000-000-0-0-000-000-0-0-000-0-0-000-000-0-0-000-000-0-0-|
 *** * * *** *** * * *** *** * * *** * * *** *** * * *** *** * *

-----------------------------------------------------------|
-----------------------------------------------------------|
-----------------------------------------------------------|
-------------------------------------------------0-0-0-0-0-|
-------------------------------------------------0-0-0-0-0-|
-000-0-0-000-000-0-0-000-000-0-0-000-0-000-000-0-1-1-1-1-0-|
 *** * * *** *** * * *** *** * * *** * *** *** * * * * *  
Tap to rate this tab
 
# A B C D E F G H I J K L M N O P Q R S T U V W X Y Z