Song name
# A B C D E F G H I J K L M N O P Q R S T U V W X Y Z

Parkway Drive - Snake Oil And Holy Water tab

Song: Snake Oil And Holy Water
Artist: Parkway Drive
Album: Atlas
Year: 2012
Tuning: Drop B



Both Guitars  0:02
      PM PM PMPMPM PM PM PMPMPM                      PMPMPM  
C#||----------------------------|------------- -------------|
G#||----------------------------|---------------------------|   cont.
E ||----------------------------|---------------------------|
B ||----------------------------|---------------------------|
F#||----------------------------|---------------------------|
B ||--0--0--0-0-0--0--0--0-0-0--|--0--0--0--12~------0-0-0--|
                                                 PMPMPM  
----------------------------|---------------------------|
----------------------------|---------------------------|               cont.
----------------------------|---------------------------|
----------------------------|---------------------------|
-----12--8-----10--8--7--8--|---------------------------|
--8---------8---------------|--0--0--0--12~------0-0-0--|
  PM PM PMPMPM PM PM PMPMPM                      PMPMPM  
----------------------------|------------- -------------|
----------------------------|---------------------------|               cont.
----------------------------|---------------------------|
----------------------------|---------------------------|
----------------------------|---------------------------|
--0--0--0-0-0--0--0--0-0-0--|--0--0--0--12~------0-0-0--|
                                                  PMPMPM  
------------------------------|--------------------------|
------------------------------|--------------------------|              cont.
------------------------------|--------------------------|
------------------------------|--------------------------|
------------------------------|--------------------------|
-0--15--15--15--0--14--14--14-|--0--0--0--12~-----0-0-0--|
  PM PM PMPMPM PM PM PMPMPM                      PMPMPM  
----------------------------|------------- -------------|
----------------------------|---------------------------|               cont.
----------------------------|---------------------------|
----------------------------|---------------------------|
----------------------------|---------------------------|
--0--0--0-0-0--0--0--0-0-0--|--0--0--0--12~------0-0-0--|
                                                 PMPMPM  
----------------------------|---------------------------|
----------------------------|---------------------------|               cont.
----------------------------|---------------------------|
----------------------------|---------------------------|
-----12--8-----10--8--7--8--|---------------------------|
--8---------8---------------|--0--0--0--12~------0-0-0--|

2nd Guitar Harmony
---------------------------|
---------------------------|
---------------------------|
-----10--7-----8--7--5--7--|
--5---------5--------------|
---------------------------|

  PM          PM PM                              PMPMPM  
----------------------------|---------------------------|
----------------------------|---------------------------|               cont.
----------------------------|---------------------------|
----------------------------|---------------------------|
----------------------------|---------------------------|
--0--12~------0--0--12~-----|--0--0--0--12~------0-0-0--|

                               
--------------------------------|
--------------------------------|
--------------------------------|
--------------------------------|
--------------------------------|
--0--15--15--15--0--14--14--14--|

2nd Guitar Harmony
--------------------------------|
--------------------------------|
--------------------------------|
--------------------------------|
-----12--12--12-----10--10--10--|
--0--------------0--------------|






Both Guitar  0:21
     PM PM     PM PM PM PM       PM PM    PM PM PM PM       
---------------------------|--------------------------|
---------------------------|--------------------------|         cont.
---------------------------|--------------------------|
---------------------------|--------------------------|
---------------------------|--------------------------|
--0--0--0--12--0--0--0--0--|--0--0--0--0--0--0--0--0--|
      PM PM    PM PM PM PM  
---------------------------|--------------------------------|
---------------------------|--------------------------------|   cont.
---------------------------|--------------------------------|
---------------------------|--------------------------------|
---------------------------|--------------------------------|
---0--0--0--0--0--0--0--0--|--0--15--15--15--0--14--14--14--|

                                 2nd Guitar Harmony
                           |--------------------------------|
                           |--------------------------------|
                           |--------------------------------|
                           |--------------------------------|
                           |-----12--12--12-----10--10--10--|
                           |--0--------------0--------------|

     PM PM     PM PM PM PM       PM PM    PM PM PM PM       
---------------------------|--------------------------|
---------------------------|--------------------------|         cont.
---------------------------|--------------------------|
---------------------------|--------------------------|
---------------------------|--------------------------|
--0--0--0--12--0--0--0--0--|--0--0--0--0--0--0--0--0--|
     PM PM    PM PM PM PM  
--------------------------|-------------------------|   
--------------------------|-------------------------|                   X2      
--------------------------|-------------------------|
--------------------------|----------------------7--|
--------------------------|-----7--8-------7--8-----|
--0--0--0--0--0--0--0--0--|--8----------8-----------|

                    Last time 2nd guitar does the harmony       
                       |----------------------------|
                       |----------------------------|
                       |----------------------------|
                       |--------------------------10|
                       |----10--12--------10--12----|
                       |12------------12------------|





Both Guitars  0:40
----------------------------------|----------------------------------|
----------------------------------|----------------------------------|  cont.
----------------------------------|----------------------------------|
----------------------------------|----------------------------------|
------------------7-7-7-7-7-7-7-7-|------------------7-7-7-7-8-8-8-8-|
--3-3-3-3-3-3-3-3-----------------|--3-3-3-3-3-3-3-3-----------------|

----------------------------------|----------------------------------|
----------------------------------|----------------------------------|  cont.
----------------------------------|----------------------------------|
----------------------------------|----------------------------------|
------------------7-7-7-7-7-7-7-7-|------------------7-7-7-7-3-3-3-3-|
--0-0-0-0-0-0-0-0-----------------|--0-0-0-0-0-0-0-0-----------------|

--------------------------------------|--------------------------------------|
--------------------------------------|--------------------------------------|  cont.
--------------------------------------|--------------------------------------|
--------------------------------------|--------------------------------------|
------------------7-7-7-7-12-12-12-12-|------------------7-7-7-7-12-12-12-12-|
--7-7-7-7-7-7-7-7---------------------|--7-7-7-7-7-7-7-7---------------------|

----------------------------------|----------------------------------|
----------------------------------|----------------------------------|  X2
----------------------------------|--5-5-5-5-4-4-4-4-0-0-0-0-2-2-2-2-|
----------------------------------|----------------------------------|
------------------3-3-3-3-5-5-5-5-|----------------------------------|
--5-5-5-5-5-5-5-5-----------------|----------------------------------|






Both Guitars  1:00
-------------------------------|-------------------------------|
-------------------------------|-------------------------------|                cont.
-------------------------------|-------------------------------|
-------------------------------|-------------------------------|
-------------------------------|-------------------------------|
--7p--0--8p--0--10p--0--7p--0--|--8p--0--10--12--7p--0--8p--0--|

-------------------------------|-------------------------------|
-------------------------------|-------------------------------|
-------------------------------|-------------------------------|
-------------------------------|-------------------------------|
-------------------------------|-------------------------------|
--10p--0--7p--0--8p--0--10p--0-|--0----------------------------|



Both Guitars  1:04
                    PMPMPM    PM PM PMPMPM PM PM PMPMPM  
---------------------------|----------------------------|
---------------------------|----------------------------|               cont.
---------------------------|----------------------------|
---------------------------|----------------------------|
---------------------------|----------------------------|
--0--0--0--12~------0-0-0--|--0--0--0-0-0--0--0--0-0-0--|
                    PMPMPM  
------------- -------------|----------------------------|
---------------------------|----------------------------|               cont.
---------------------------|----------------------------|
---------------------------|----------------------------|
---------------------------|-----12--8-----10--8--7--8--|
--0--0--0--12~------0-0-0--|--8---------8---------------|


                                 2nd Guitar Harmony
                           |----------------------------|
                           |----------------------------|
                           |----------------------------|
                           |------10--7-----8--7--5--7--|
                           |--5----------5--------------|
                           |----------------------------|

                    PMPMPM    PM PM PMPMPM PM PM PMPMPM  
---------------------------|----------------------------|
---------------------------|----------------------------|               cont.
---------------------------|----------------------------|
---------------------------|----------------------------|
---------------------------|----------------------------|
--0--0--0--12~------0-0-0--|--0--0--0-0-0--0--0--0-0-0--|
                    PMPMPM  
------------- -------------|--------------------------------|
---------------------------|--------------------------------|   
---------------------------|--------------------------------|
---------------------------|--------------------------------|
---------------------------|--------------------------------|
--0--0--0--12~------0-0-0--|--0--15--15--15--0--14--14--14--|

                                    2nd Guitar Harmony
                           |--------------------------------|
                           |--------------------------------|
                           |--------------------------------|
                           |--------------------------------|
                           |-----12--12--12-----10--10--10--|
                           |--0--------------0--------------|








Both Guitars  1:14

     PM PM     PM PM PM PM       PM PM    PM PM PM PM     
---------------------------|--------------------------|
---------------------------|--------------------------|         cont.
---------------------------|--------------------------|
---------------------------|--------------------------|
---------------------------|--------------------------|
--0--0--0--12--0--0--0--0--|--0--0--0--0--0--0--0--0--|
     PM PM    PM PM PM PM                                   
--------------------------|--------------------------------|
--------------------------|--------------------------------|    cont.
--------------------------|--------------------------------|
--------------------------|--------------------------------|
--------------------------|--------------------------------|
--0--0--0--0--0--0--0--0--|--0--15--15--15--0--14--14--14--|

                                    2nd Guitar Harmony
                          |--------------------------------|
                          |--------------------------------|
                          |--------------------------------|
                          |--------------------------------|
                          |-----12--12--12-----10--10--10--|
                          |--0--------------0--------------|
     PM PM    PM PM PM PM       PM PM    PM PM PM PM  
--------------------------|--------------------------|
--------------------------|--------------------------|          cont.
--------------------------|--------------------------|
--------------------------|--------------------------|
--------------------------|--------------------------|
--0--0--0--0--0--0--0--0--|--0--0--0--0--0--0--0--0--|
     PM PM    PM PM PM PM                            
--------------------------|-------------------------|
--------------------------|-------------------------|   
--------------------------|-------------------------|
--------------------------|----------------------7--|
--------------------------|-----7--8-------7--8-----|
--0--0--0--0--0--0--0--0--|--8----------8-----------|







Both Guitars  1:24
  PMPMPMPMPM     PM PM PM PM    PMPMPMPMPM    PM PM PM PM  
-----------------------------|----------------------------|
-----------------------------|----------------------------|             cont.
-----------------------------|----------------------------|
-----------------------------|----------------------------|
-----------------------------|----------------------------|
--0-0-0-0-0--12--0--0--0--0--|--0-0-0-0-0--0--0--0--0--0--|
  PMPMPMPMPM    PM PM PM PM                                   
----------------------------|--------------------------------|
----------------------------|--------------------------------|  cont.
----------------------------|--------------------------------|
----------------------------|--------------------------------|
----------------------------|--------------------------------|
--0-0-0-0-0--0--0--0--0--0--|--0--15--15--15--0--14--14--14--|
                                    2nd Guitar Harmony
                            |--------------------------------|
                            |--------------------------------|
                            |--------------------------------|
                            |--------------------------------|
                            |-----12--12--12-----10--10--10--|
                            |--0--------------0--------------|
  PMPMPMPMPM     PM PM PM PM    PMPMPMPMPM    PM PM PM PM  
-----------------------------|----------------------------|
-----------------------------|----------------------------|             cont.
-----------------------------|----------------------------|
-----------------------------|----------------------------|
-----------------------------|----------------------------|
--0-0-0-0-0--12--0--0--0--0--|--0-0-0-0-0--0--0--0--0--0--|
  PMPMPMPMPM    PM PM PM PM                                   
----------------------------|-------------------------|
----------------------------|-------------------------|
----------------------------|-------------------------|
----------------------------|----------------------7--|
----------------------------|-----7--8-------7--8-----|
--0-0-0-0-0--0--0--0--0--0--|--8----------8-----------|


Both Guitars  1:34
----------------------------|-------------------------|
----------------------------|-------------------------|         cont.
-----------10---------------|--10---------------------|
---------------------10-----|--10---------------------|
--8-------------------------|---8---------------------|
--8-------------------------|---8---------------------|


---------------------------|--------------------------|
---------------------------|--------------------------|         cont.
-----------7---------------|-----------3--------------|
--------------------7------|--------------------7-----|
--0------------------------|--3-----------------------|
--0------------------------|--3-----------------------|
            
---------------------------|--------------------------|
---------------------------|--------------------------|         cont.
-----------10--------------|--10----------------------|
---------------------10----|--10----------------------|
--8------------------------|---8----------------------|
--8------------------------|---8----------------------|

-------------------------------|-------------------------------|
-------------------------------|-------------------------------| X2
-------------------------------|-------------------------------|
-------------------------------|-------------------------------|
-------------------------------|-------------------------------|
--7p--0--8p--0--10p--0--7p--0--|--8p--0--10p--0--8p--0--7p--0--|

Last time play this. 
-------------------------------|-------------------------------|
-------------------------------|-------------------------------|
-------------------------------|-------------------------------|
-------------------------------|-------------------------------|
-------------------------------|-------------------------------|
--7p--0--8p--0--10p--0--7p--0--|--8p--0--10p--0--7p--0--8p--0--|

-------------------------------|
-------------------------------|
-------------------------------|
-------------------------------|
-------------------------------|
--10p--0--0--------------------|








Both Guitars  1:54
------------- --------------|----------------------------|
----------------------------|----------------------------|              cont.
----------------------------|----------------------------|
----------------------------|----------------------------|
----------------------------|----------------------------|
--0--0--0--12~--------0--0--|--0--12~------0--0--12~-----|

----------------------------|----------------------------|
----------------------------|----------------------------|              cont.
----------------------------|----------------------------|
----------------------------|----------------------------|
----------------------------|-----12--8-----10--8--7--8--|
--0--0--0--12~--------0--0--|--8---------8---------------|

------------- --------------|----------------------------|
----------------------------|----------------------------|              cont.
----------------------------|----------------------------|
----------------------------|----------------------------|
----------------------------|----------------------------|
--0--0--0--12~--------0--0--|--0--12~------0--0--12~-----|

----------------------------|--------------------------------|
----------------------------|--------------------------------|  cont.
----------------------------|--------------------------------|
----------------------------|--------------------------------|
----------------------------|--------------------------------|
--0--0--0--12~--------0--0--|--0--15--15--15--0--14--14--14--|





Both Guitars  2:04
  PMPMPM PMPMPM PMPMPM PMPMPM    PMPMPM PMPMPM PMPMPM PMPMPM  
------------------------------|------------------------------|
------------------------------|------------------------------|          cont.
------------------------------|------------------------------|
------------------------------|------------------------------|
--0-0-0--0-0-0--0-0-0--0-0-0--|--0-0-0--0-0-0--0-0-0--0-0-0--|
--0-0-0--0-0-0--0-0-0--0-0-0--|--0-0-0--0-0-0--0-0-0--0-0-0--|
  PMPMPM PMPMPM PMPMPM PMPMPM        PM  PM  PM      PM  PM  PM  
------------------------------|----------------------------------|
------------------------------|----------------------------------|              cont.
------------------------------|----------------------------------|
------------------------------|----------------------------------|
--0-0-0--0-0-0--0-0-0--0-0-0--|----------------------------------|
--0-0-0--0-0-0--0-0-0--0-0-0--|--17--13--13--13--16--12--12--12--|
  PMPMPM PMPMPM PMPMPM PMPMPM    PMPMPM PMPMPM PMPMPM PMPMPM  
------------------------------|------------------------------|
------------------------------|------------------------------|          cont.
------------------------------|------------------------------|
------------------------------|------------------------------|
--0-0-0--0-0-0--0-0-0--0-0-0--|--0-0-0--0-0-0--0-0-0--0-0-0--|
--0-0-0--0-0-0--0-0-0--0-0-0--|--0-0-0--0-0-0--0-0-0--0-0-0--|
  PMPMPM PMPMPM PMPMPM PMPMPM         
------------------------------|-------------------------|
------------------------------|-------------------------|               
------------------------------|-------------------------|
------------------------------|----------------------7--|
--0-0-0--0-0-0--0-0-0--0-0-0--|-----7--8-------7--8-----|
--0-0-0--0-0-0--0-0-0--0-0-0--|--8----------8-----------|

                                    2nd Guitar Harmony
                            |----------------------------|
                            |----------------------------|
                            |----------------------------|
                            |--------------------------10|
                            |----10--12--------10--12----|
                            |12------------12------------|








1st Guitar  2:14       Both Guitars  2:15
----------------------------------|----------------------------------|
----------------------------------|----------------------------------|  Cont.
----------------------------------|----------------------------------|
----------------------------------|----------------------------------|
------------------7-7-7-7-7-7-7-7-|------------------7-7-7-7-8-8-8-8-|
--3-3-3-3-3-3-3-3-----------------|--3-3-3-3-3-3-3-3-----------------|

----------------------------------|----------------------------------|
----------------------------------|----------------------------------|  Cont.
----------------------------------|----------------------------------|
----------------------------------|----------------------------------|
------------------7-7-7-7-7-7-7-7-|------------------7-7-7-7-3-3-3-3-|
--0-0-0-0-0-0-0-0-----------------|--0-0-0-0-0-0-0-0-----------------|

--------------------------------------|--------------------------------------|
--------------------------------------|--------------------------------------|  Cont.
--------------------------------------|--------------------------------------|
--------------------------------------|--------------------------------------|
------------------7-7-7-7-12-12-12-12-|------------------7-7-7-7-12-12-12-12-|
--7-7-7-7-7-7-7-7---------------------|--7-7-7-7-7-7-7-7---------------------|

----------------------------------|----------------------------------|
----------------------------------|----------------------------------|  X2
----------------------------------|--5-5-5-5-4-4-4-4-0-0-0-0-2-2-2-2-|
----------------------------------|----------------------------------|
------------------3-3-3-3-5-5-5-5-|----------------------------------|
--5-5-5-5-5-5-5-5-----------------|----------------------------------|

Last time 2nd Guitar ends with.
----------------------------------|----------------------------------|
----------------------------------|--5-5-5-5-3-3-3-3-0-0-0-0-1-1-1-1-|
--------------------------2-2-2-2-|----------------------------------|
----------------------------------|----------------------------------|
------------------3-3-3-3---------|----------------------------------|
--5-5-5-5-5-5-5-5-----------------|----------------------------------|





1st Guitar  2:33       
----------------------------------|----------------------------------|
----------------------------------|----------------------------------|  Cont.
----------------------------------|----------------------------------|
----------------------------------|----------------------------------|
------------------7-7-7-7-7-7-7-7-|------------------7-7-7-7-8-8-8-8-|
--3-3-3-3-3-3-3-3-----------------|--3-3-3-3-3-3-3-3-----------------|

----------------------------------|----------------------------------|
----------------------------------|----------------------------------|  Cont.
----------------------------------|----------------------------------|
----------------------------------|----------------------------------|
------------------7-7-7-7-7-7-7-7-|------------------7-7-7-7-3-3-3-3-|
--0-0-0-0-0-0-0-0-----------------|--0-0-0-0-0-0-0-0-----------------|

--------------------------------------|--------------------------------------|
--------------------------------------|--------------------------------------|  Cont.
--------------------------------------|--------------------------------------|
--------------------------------------|--------------------------------------|
------------------7-7-7-7-12-12-12-12-|------------------7-7-7-7-12-12-12-12-|
--7-7-7-7-7-7-7-7---------------------|--7-7-7-7-7-7-7-7---------------------|

----------------------------------|----------------------------------|
----------------------------------|----------------------------------|  X2
----------------------------------|--5-5-5-5-4-4-4-4-0-0-0-0-2-2-2-2-|
----------------------------------|----------------------------------|
------------------3-3-3-3-5-5-5-5-|----------------------------------|
--5-5-5-5-5-5-5-5-----------------|----------------------------------|







2nd Guitar  2:33
----------------------------------|----------------------------------|
----------------------------------|----------------------------------|  Cont.
------------------4-4-4-4-4-4-4-4-|------------------4-4-4-4-5-5-5-5-|
----------------------------------|----------------------------------|
----------------------------------|----------------------------------|
--3-3-3-3-3-3-3-3-----------------|--3-3-3-3-3-3-3-3-----------------|

----------------------------------|----------------------------------|
----------------------------------|----------------------------------|  Cont.
------------------4-4-4-4-4-4-4-4-|------------------4-4-4-4-0-0-0-0-|
----------------------------------|----------------------------------|
----------------------------------|----------------------------------|
--0-0-0-0-0-0-0-0-----------------|--0-0-0-0-0-0-0-0-----------------|

----------------------------------|----------------------------------|
----------------------------------|----------------------------------|  Cont.
------------------4-4-4-4-5-5-5-5-|------------------4-4-4-4-5-5-5-5-|
----------------------------------|----------------------------------|
----------------------------------|----------------------------------|
--7-7-7-7-7-7-7-7-----------------|--7-7-7-7-7-7-7-7-----------------|

----------------------------------|----------------------------------|
----------------------------------|--5-5-5-5-3-3-3-3-0-0-0-0-1-1-1-1-|
------------------4-4-4-4-5-5-5-5-|----------------------------------|
----------------------------------|----------------------------------|
----------------------------------|----------------------------------|
--5-5-5-5-5-5-5-5-----------------|----------------------------------|








1st Guitar  2:43                            2nd guitar  2:45
-------------------------------|-------------------------------|
-------------------------------|-------------------------------|                Cont.
-------------------------------|-------------------------------|
-------------------------------|-------------------------------|
-------------------------------|-------------------------------|
--7p--0--8p--0--10p--0--7p--0--|--8p--0--10p--0--7p--0--8p--0--|

-----------------------------||
-----------------------------||
-----------------------------||
-----------------------------||
-----------------------------||
--10p--0--7p--0--7p--0--0----||






Tablature Legend
----------------
PM - palm mute
b - bend
L - tied note
x - dead note
g - grace note
(n) - ghost note
> - accentuded note
PH - pitch harmonic
h - hammer on
p - pull off
Tap to rate this tab
# A B C D E F G H I J K L M N O P Q R S T U V W X Y Z