Song name
# A B C D E F G H I J K L M N O P Q R S T U V W X Y Z

Parkway Drive - Old Ghost New Regrets tab

PARKWAY DRIVE
ATLAS
OLD GHOSTS NEW REGRETS
DROP A#
PROBABLY NOT 100% BUT ITS A START

INTRO 0:00                     FIRST ENDING             SECOND ENDING
C |--------------------------|-------------------------|-----------------------||
G |--------------------------|-------------------------|-----------------------||
D#|*-------------------------|-------------------------|----------------------*||
A#|--------------------------|-------------10h12p10----|-----------------------||  X3
F |*-12h13p12----0--0-0--(x3)|-------12h15----------10-|----------------------*||
A#|-----------15-0--0-0------|-12h15-------------------|-12h13p12h13p12h13p12--||


0:25
C |------------------|
G |------------------|
D#|------------------|
A#|------------------|
F |------------------|
A#|-12~~~brbbbrbr!---|


0:29 BREAKDOWN/CHORUS PART                                            |
C |-------------------------------------------------------------------|
G |-------------------------------------------------------------------|
D#|-------------------------------------------------------------------|
A#|-0~-------0~-----0~--------------10h12p10--------------------------|
F |-0~-0-0-0-0~-000-0~--------12h15----------10-----------------------|
A#|-0~-0-0-0-0~-000-0~--12h15-------------------12h13p12h13ph12h13p12-|
|      * * *    ***                                                   |

                     FIRST ENDING..
--------------------|-------------|
--------------------|-------------|
--------------------|-------------|
-0~-------0~-----0~-|-------------| X2
-0~-0-0-0-0~-000-0~-|-------------|
-0~-0-0-0-0~-000-0~-|-12b(13)r----|
    * * *    ***


0:45 SECOND ENDING
C |--------------------------|
G |--------------------------|
D#|--------------------------|
A#|--------------------------|
F |--------------------------|
A#|-12b13r12b13r12b(14)b(15)-|



0:50 BREAKDOWN! A
C |-----------------------------------------------------------------------|
G |-----------------------------------------------------------------------|
D#|--THE FIRST 5 STRUMS ARE REPLACED WITH 10 IN THE NEXT THREE REPEATS----|
A#|-------^---------------------------------------------------------------| X4
F |--0-0-0-0-0---0-00-00--0000000000-0--0-00-00---------------------------|
A#|--0-0-0-0-0---0-00-00--0000000000-0--0-00-00---------------------------|
     * * * * *   * ** **  ********** *  * ** **


1:07 BACK TO THIS (FOLLOW SONG TO FIGURE OUT STRUCTURE HERE)
C |--------------------------|-------------------------|-----------------------||
G |--------------------------|-------------------------|-----------------------||
D#|*-------------------------|-------------------------|----------------------*||
A#|--------------------------|-------------10h12p10----|-----------------------||  X2
F |*-12h13p12----0--0-0--(x3)|-------12h15----------10-|----------------------*||
A#|-----------15-0--0-0------|-12h15-------------------|-12h13p12h13p12h13p12--||
|
1:28 AND THEN
C |---------------------------------------------------|
G |---------------------------------------------------|
D#|---------------------------------------------------|
A#|------------------8--5--10--7----------------------|
F |------------------8--5--10--7----------------------|
A#|-12~~~brbbbrbr!---8--5--10--7-----12h13p12h13p12...|

1:34 STRUM HARD
C |-----------------------------|
G |-----------------------------|
D#|-----------------------------|
A#|-0~~~~~----------------------|
F |-0~~~~~-----FEEDBACK AT 1:46-|
A#|-0~~~~-----------------------|


1:53 BUILD UP (GUITAR 1 DOES THE 12H13 TRILL AND THEN WAITS FOR THE 2ND GUITAR TO 
DO IT.. THEN THEY PLAY TOGETHER)
C |---------------------------------------------------------|
G |---------------------------------------------------------|
D#|---------------------------------------------------------|
A#|---------------------------------------------------------| X2
F |----------------0~----------~~~--0-0-0-00--0-0-0-0-0-00--|
A#|-12h13p12h13p12p0~-(guitar2)~~---0-0-0-00--0-0-0-0-0-00--|
                                    * * * **  * * * * * **
2:02 THEN                          FIRST ENDING
C |------------------------------|--------------------------|----------------|
G |------------------------------|--------------------------|----------------|
D#|*-----------------------------|-------------------------*|----------------|
A#|------------------------------|--------------------------|-8--5--10--7----|
F |*---------------0~~~~---------|--0-0-0-00--0-0-0-0-0-00-*|-8--5--10--7----|
A#|-12h13p12h13p12p0~~~----------|--0-0-0-00--0-0-0-0-0-00--|-8--5--10--7----|
                                    * * * **  * * * * * **
2:10 THEN....
C |---------------------------------------------------------|------------|
G |---------------------------------------------------------|------------|
D#|---------------------------------------------------------|------------|
A#|---------------------------------------------------------|-8--5--10---|
F |----------------0~----------~~~--0-0-0-00--0-0-0-0-0-00--|-8--5--10---|
A#|-12h13p12h13p12p0~-(guitar2)~~---0-0-0-00--0-0-0-0-0-00--|-8--5--10---| (ALL VERY SIMILAR)^^^
                                    * * * **  * * * * * **


2:19 BREAKDOWN B                                 END WITH THIS ON 4TH TIME
C |---------------------------------------------|--------------------------|
G |---------------------------------------------|--------------------------|
D#|---------------------------------------------|--------------------------|
A#|---------------------------------------------|--8--5--10--7-------------| X4
F |--0000000000--0-00-00--0000000000-000-00-00--|--8--5--10--7-------------|
A#|--0000000000--0-00-00--0000000000-000-00-00--|--8--5--10--7-------------|
|    **********  * ** **  ********** *** ** **
|
2:37 (SLOWER, SO LESS STRUMS NEEDED)            |
C |---------------------------------------------|
G |---------------------------------------------|
D#|---------------------------------------------|
A#|---------------------------------------------|
F |--0-0-0-0-0---0-00-00--0-0-0-0-0--000-00-00--|
A#|--0-0-0-0-0---0-00-00--0-0-0-0-0--000-00-00--|
     * * * * *   * ** **  * * * * *  *** ** **|

 END WITH THIS ON 2ND TIME
|---------------------------------------------------------------|
|---------------------------------------------------------------|
|---------------------------------------------------------------|
|----------------------------------------------------------0~---|
|----------------------------------------------------------0~---|
|--7b8r7b8--4b5r4b5--9b10r9b10--6b7r6b7----12h13p12h13p12--0~---|

DONE.CHEERS.BYE.YEAH.GL.MMM.;P
Tap to rate this tab
# A B C D E F G H I J K L M N O P Q R S T U V W X Y Z