Song name
# A B C D E F G H I J K L M N O P Q R S T U V W X Y Z

Parkway Drive - Pressures tab

PARKWAY DRIVE

PRESSURES

A#-F-A#-D#-G-C

TABBED BY andherembrace






L
-------------------------------------------|
-------------------------------------------|
-------------------------------------------|
-------------------------------------------|
-----8-8-8-8-----7-7-7-7-----7-7--0--------|
-5-5---------8-8---------3-3------0--------|
                                   |
R
-----------------------------------------------|
-----------------------------------------------|
-----------------------------------------------|
-----------------------------------------------|
----12-12-12-12------10-10-10-10-----8-8-0-----|
8-8------------12-12-------------7-7-----0-----|
                                          |


0:11

L
-------------------------------------------|
-------------------------------------------|
-------------------------------------------|
-------------------------------------------|
-----8-8-8-8-----7-7-7-7----7-7-0----------|
-5-5---------8-8--------3-3-----0----------|

R
----------------------------------------------|
----------------------------------------------|
----------------------------------------------|
----------------------------------------------|
----12-12-12-12-----10-10-10-10-----8-8-0-----|
8-8------------12-12------------7-7-----0-----|


0:17
L
-----------------------------------------------------|
-----------------------------------------------------|
---------10-9-10-9--7-9----------------10-5-10-9-10--|
-P--------X-X--X-X--X-X--0--------------X-X--X-X--X--|
--S-------8-7--8-7--5-7--0--------------8-3--8-7--8--|
---\---------------------0---------------------------|
R
-----------------------------------------------------|
-----------------------------------------------------|
-------14-12-14-1210-12--------------14-10-14-12--14-|
--------X--X--X--X-X--X--0------------X-X---X--X---X-|
-------12-10-12-10-8-10--0-----------12-8--12-10--12-|
-------------------------0---------------------------|



0:28

B
------------------------------------------------------|
------------------------------------------------------|
------------------------------------------------------|
-0-0-0-0-0-0-0-00-0-0-0-0-0-0-0-00-0-0-0-0-0-0-0-00---|
-0-0-0-0-0-0-0-00-0-0-0-0-0-0-0-00-0-0-0-0-0-0-0-00---|
-0-0-0-0-0-0-0-00-0-0-0-0-0-0-0-00-0-0-0-0-0-0-0-00---|
 * * * * * * * ** * * * * * * * ** * * * * * * * **

L
-------------------------------------|
-------------------------------------|
-------------------------------------|
-------------------------------------|
-----8-8-8-8-----7-7-7-7-----7-7-----|
-5-5---------8-8---------3-3---------|
 * * * * * * * * * * * * * * * *
R
------------------------------------------|
------------------------------------------|
------------------------------------------|
------------------------------------------|
----12-12-12-12------10-10-10-10------8-8-|
8-8------------12-12--------------7-7-----|
* *  *  *  *  * *  *  *  *  *  *  * * * *


B
------------------------------------------------------|
------------------------------------------------------|
------------------------------------------------------|
-0-0-0-0-0-0-0-00-0-0-0-0-0-0-0-00-0-0-0-0-0-0-0-00---|
-0-0-0-0-0-0-0-00-0-0-0-0-0-0-0-00-0-0-0-0-0-0-0-00---|
-0-0-0-0-0-0-0-00-0-0-0-0-0-0-0-00-0-0-0-0-0-0-0-00---|
 * * * * * * * ** * * * * * * * ** * * * * * * * **

L
-------------------------------------|
-------------------------------------|
-------------------------------------|
-------------------------------------|
-----8-8-8-8-----7-7-7-7-----7-7-----|
-5-5---------8-8---------3-3---------|
 * * * * * * * * * * * * * * * *
R
------------------------------------------|
------------------------------------------|
------------------------------------------|
------------------------------------------|
----12-12-12-12------10-10-10-10------8-8-|
8-8------------12-12--------------7-7-----|
* *  *  *  *  * *  *  *  *  *  *  * * * *


0:42

L
---------------------------------------------------------------|
---------------------------------------------------------------|
---------------------------------------------------------------|
-0-------------------------------------------------------------|
-0------------------------------0------------------------------|
-0-------------------------0000-0------------------------------|
                           ****  |
R
----------------------------------------------------------------|
----------------------------------------------------------------|
----2222222200223333223355553355---222222220022-33-2-0----------|
-------------------------------------------------------3-5-3-2-0|
----------------------------------------------------------------|
-0-------------------------------0------------------------------|
  |                               |             ** * * * * * * *


L
---------------------------------------------------------------|
---------------------------------------------------------------|
----------------------------------------------2-3-2---3-5-3----|
-0------------------------------0------------------------------|
-0------------------------------0------------------------------|
-0-------------------------0000-0------------------------------|
                           ****  |                  |        |
R
----------------------------------------------------------------|
----------------------------------------------------------------|
----2222222200223333223355553355---2222222200-2-3-2---3-5-3-----|
----------------------------------------------------------------|
----------------------------------------------------------------|
-0-------------------------------0------------------------------|
  |                               |                 |        |


0:51

B
---------------------------------------------------------------|
---------------------------------------------------------------|
----2222222200223333223355553355---222222220022-3-2-0----------|
------------------------------------------------------3-5-3-2-0|
---------------------------------------------------------------|
-0-------------------------------0-----------------------------|
  |                               |             * * * * * * * *

---------------------------------------------------------------|
---------------------------------------------------------------|
----2222222200223333223355553355---222222220022-3-2-0----------|
------------------------------------------------------3-5-3-2-0|
---------------------------------------------------------------|
-0-------------------------------0-----------------------------|
  |                               |             * * * * * * * *


1:01

L
---------------------------------------------------------------|
---------------------------------------------------------------|
---------------------------------------------------------------|
---------------------------------------------------------------|
---------------------------------------------------------------|
-000-000-------000-000-000-------000-000-----000-000-000-------|
 *** ***       *** *** ***       *** ***     *** *** ***
R
---------------------------------------------------------------|
---------------------------------------------------------------|
----2222222200223333223355553355---222222220022-3-2-0----------|
------------------------------------------------------3-5-3-2-0|
---------------------------------------------------------------|
-0-------------------------------0-----------------------------|
  |                               |             * * * * * * * *


L
---------------------------------------------------------------|
---------------------------------------------------------------|
----------------------------------------------2-3-2---3-5-3----|
---------------------------------------------------------------|
---------------------------------------------------------------|
-000-000-------000-000-000-------000-000-----------------------|
 *** ***       *** *** ***       *** ***      * * *   * * *

R
----------------------------------------------------------------|
----------------------------------------------------------------|
----2222222200223333223355553355---2222222200-2-3-2---3-5-3-----|
----------------------------------------------------------------|
----------------------------------------------------------------|
-0-------------------------------0------------------------------|
  |                               |           * * *   * * *


1:10


1L
---------------------------------------------------|
---------------------------------------------------|
--------------1010101077775555---------------------|
-----7777---------------------7777-8~~~~~/10--7~---|
---------8888--------------------------------------|
5555-----------------------------------------------|
2R
---------------------------------------------------|
---------------------------------------------------|
----------------7777-------------------------------|
------7777----------88887777-------5~~~~~/7--3~----|
-----------8888--------------8888------------------|
-5555----------------------------------------------|
3
---------------------------------------------------|
---------------------------------------------------|
---------------------------------------------------|
---------------------------------------------------|
-5-------------------8-------------3---------------|
-5-------------------8-------------3---------------|


1:15

1L
----------------------------------------------------------17-20-20----|
-----------------------------------------18-17-18-18~--18----------18~|
757-979-10910-121012-141214-151415-17~--------------------------------|
----------------------------------/-----------------------------------|
----------------------------------------------------------------------|
----------------------------------------------------------------------|
2R
---------------------------------------------------------15-17-17-----|
-----------------------------------------15-13-15-15~-15----------15~-|
323--535--757--979--10910--121012-14~---------------------------------|
---------------------------------/------------------------------------|
----------------------------------------------------------------------|
----------------------------------------------------------------------|
3
---------------------------------------------------------------------|
---------------------------------------------------------------------|
---------------------------------------------------------------------|
---------------------------------------------------------------------|
-5--------------8------------------------3---------------------------|
-5--------------8------------------------3---------------------------|



1:20

L
-----------------------------------------------------------------|
-----------------------------------------------------------------|
-----------------------------------------------------------------|
-----------------------------------------------------------------|
---8---8---8---8---7---7---7---7---7---7---7---7---5---5---5---5-|
-5---5---5---5---8---8---8---8---3---3---3---3---3---3---3---3---|
 *   *   *   *   *   *   *   *   *   *   *   *   *   *   *   *
R
-------------------------------------------------------------------|
-------------------------------------------------------------------|
-------------------------------------------------------------------|
-------------------------------------------------------------------|
---12--12--12--12---10--10--10--10---10--10--10--10--8---8---8---8-|
-8---8---8---8----12--12--12--12---7---7---7---7---10--10--10--10--|
 *   *   *   *     *   *   *   *   *   *   *   *    *   *   *   *


L
-----------------------------------------------------------------|
-----------------------------------------------------------------|
-----------------------------------------------------------------|
-----------------------------------------------------------------|
---8---8---8---8---7---7---7---7---7---7---7---7---5---5---5---5-|
-5---5---5---5---8---8---8---8---3---3---3---3---3---3---3---3---|
 *   *   *   *   *   *   *   *   *   *   *   *   *   *   *   *
R
-------------------------------------------------------------------|
-------------------------------------------------------------------|
-------------------------------------------------------------------|
-------------------------------------------------------------------|
---12--12--12--12---10--10--10--10---10--10--10--10--8---8---8---8-|
-8---8---8---8----12--12--12--12---7---7---7---7---10--10--10--10--|
 *   *   *   *     *   *   *   *   *   *   *   *    *   *   *   *


1:30

B
---------------------------------------------------------------|
---------------------------------------------------------------|
---------------------------------------------------------------|
---------------------------------------------------------------|
---------------------------------------------------------------|
-000-000-000-----000-000-000-----000-000-000-----000-000-000---|
 *** *** ***     *** *** ***     *** *** ***     *** *** ***

---------------------------------------------------------------|
---------------------------------------------------------------|
---------------------------------------------------------------|
---------------------------------------------------------------|
---------------------------------------------------------------|
-000-000-000-----000-000-000-----000-000-000-----000-000-000---|
 *** *** ***     *** *** ***     *** *** ***     *** *** ***


---------------------------------------------------------------|
---------------------------------------------------------------|
---------------------------------------------------------------|
---------------------------------------------------------------|
---------------------------------------------------------------|
-000-000-000-----000-000-000-----000-000-000-----000-000-000---|
 *** *** ***     *** *** ***     *** *** ***     *** *** ***

---------------------------------------------------------------|
---------------------------------------------------------------|
---------------------------------------------------------------|
---------------------------------------------------------------|
---------------------------------------------------------------|
-000-000-000-----000-000-000-----000-000-000-----000-000-000---|
 *** *** ***     *** *** ***     *** *** ***     *** *** ***



1:50

L
-----------------------------------------------------------------|
-----------------------------------------------------------------|
-----------------------------------------------------------------|
-----------------------------------------------------------------|
---8---8---8---8---7---7---7---7---7---7---7---7---5---5---5---5-|
-5---5---5---5---8---8---8---8---3---3---3---3---3---3---3---3---|
 *   *   *   *   *   *   *   *   *   *   *   *   *   *   *   *
R
-------------------------------------------------------------------|
-------------------------------------------------------------------|
-------------------------------------------------------------------|
-------------------------------------------------------------------|
---12--12--12--12---10--10--10--10---10--10--10--10--8---8---8---8-|
-8---8---8---8----12--12--12--12---7---7---7---7---10--10--10--10--|
 *   *   *   *     *   *   *   *   *   *   *   *    *   *   *   *

L
-----------------------------------------------------------------|
-----------------------------------------------------------------|
-----------------------------------------------------------------|
-----------------------------------------------------------------|
---8---8---8---8---7---7---7---7---7---7---7---7---5---5---5---5-|
-5---5---5---5---8---8---8---8---3---3---3---3---3---3---3---3---|
 *   *   *   *   *   *   *   *   *   *   *   *   *   *   *   *
R
-------------------------------------------------------------------|
-------------------------------------------------------------------|
-------------------------------------------------------------------|
-------------------------------------------------------------------|
---12--12--12--12---10--10--10--10---10--10--10--10--8---8---8---8-|
-8---8---8---8----12--12--12--12---7---7---7---7---10--10--10--10--|
 *   *   *   *     *   *   *   *   *   *   *   *    *   *   *   *


2;00

+SAME RYTHM GTR AS 1ST SOLO
L
-----17-17-15--------------------------------------------------------|
-15~----------15~-15-13-15-------------------------------------------|
---------------------------14~-14141210-1212109-101097-9975-7753-5532|
---------------------------------------------------------------------|
---------------------------------------------------------------------|
---------------------------------------------------------------------|
R
---2020-17-------------------------------------------------------------|
18~-------18~18-17-18--------------------------------------------------|
---------------------17~-17171514-15151412-14141210-1212109-101097-9975|
-----------------------------------------------------------------------|
-----------------------------------------------------------------------|
-----------------------------------------------------------------------|

2:05

L
-------------------------------------------------------|
-------------------------------------------------------|
------------------------------7777----10101010---------|
-3~---7---5~~-5555----77778888----8888--------12121212-|
------------------8888---------------------------------|
-------------------------------------------------------|
R
---------------------------------------------------------------------|
---------------------------------------------------------------------|
---------------------------------777710101010--------14141414--------|
-7~---10---8~~--8888777710101010-------------12121212--------12121212|
---------------------------------------------------------------------|
---------------------------------------------------------------------|


2:10

L
---------------------------------------------------------------|
---------------------------------------------------------------|
---------------------------------------------------------------|
---------------------------------------------------------------|
---------------------------------------------------------------|
-000-000-------000-000-000-------000-000-----000-000-000-------|
 *** ***       *** *** ***       *** ***     *** *** ***
R
---------------------------------------------------------------|
---------------------------------------------------------------|
----2222222200223333223355553355---222222220022-3-2-0----------|
------------------------------------------------------3-5-3-2-0|
---------------------------------------------------------------|
-0-------------------------------0-----------------------------|
  |                               |             * * * * * * * *

L
----------------------------------------------------------------|
----------------------------------------------------------------|
-------------------------------------------------3-2-0----------|
-------------------------------------------------------3-5-3-2-0|
----------------------------------------------------------------|
-000-000-------000-000-000-------000-000-----000----------------|
 *** ***       *** *** ***       *** ***     *** * * * * * * * *
R
---------------------------------------------------------------|
---------------------------------------------------------------|
----2222222200223333223355553355---222222220022-3-2-0----------|
------------------------------------------------------3-5-3-2-0|
---------------------------------------------------------------|
-0-------------------------------0-----------------------------|
  |                               |             * * * * * * * *


2:20

B
---------------------------------------------------------------|
---------------------------------------------------------------|
----2222222200223333223355553355---222222220022-3-2-0----------|
------------------------------------------------------3-5-3-2-0|
---------------------------------------------------------------|
-0-------------------------------0-----------------------------|
  |                               |             * * * * * * * *

----------------------------------------------------------------|
----------------------------------------------------------------|
----2222222200223333223355553355---2222222200-2-3-2---3-5-3-----|
----------------------------------------------------------------|
----------------------------------------------------------------|
-0-------------------------------0------------------------------|
  |                               |



2:29

L
---------------------------------------------------------------|
---------------------------------------------------------------|
---------------------------------------------------------------|
-0----------------------------0--------------------------------|
-0----------------------------0--------------------------------|
-0-----------------------0000-0--------------------------------|
                         ****  |
R
---------------------------------------------------------------|
---------------------------------------------------------------|
---222-222-0-2-333-2-3-555-3-5----222-222-0-2-332-0------------|
----------------------------------------------------3-553-2-0--|
---------------------------------------------------------------|
-0-----------------------------0-------------------------------|
  |*** *** * * *** * * *** * *  | *** *** * * *** * * *** * *

L
---------------------------------------------------------------|
---------------------------------------------------------------|
--------------------------------------------2-3-2--3-5-3-------|
-0----------------------------0--------------------------------|
-0----------------------------0--------------------------------|
-0-----------------------0000-0--------------------------------|
                         ****  |                  |      |
R
---------------------------------------------------------------|
---------------------------------------------------------------|
---222-222-0-2-333-2-3-555-3-5----222-222-0-2-3-2--3-5-3-------|
---------------------------------------------------------------|
---------------------------------------------------------------|
-0-----------------------------0-------------------------------|
  |*** *** * * *** * * *** * *  | *** *** *       |      |



2:39

B
------------------------------------------------------|
------------------------------------------------------|
------------------------------------------------------|
-0-0-0-0-0-0-0-00-0-0-0-0-0-0-0-00-0-0-0-0-0-0-0-00---|
-0-0-0-0-0-0-0-00-0-0-0-0-0-0-0-00-0-0-0-0-0-0-0-00---|
-0-0-0-0-0-0-0-00-0-0-0-0-0-0-0-00-0-0-0-0-0-0-0-00---|
 * * * * * * * ** * * * * * * * ** * * * * * * * **

L
-------------------------------------|
-------------------------------------|
-------------------------------------|
-------------------------------------|
-----8-8-8-8-----7-7-7-7-----7-7-----|
-5-5---------8-8---------3-3---------|
 * * * * * * * * * * * * * * * *
R
------------------------------------------|
------------------------------------------|
------------------------------------------|
------------------------------------------|
----12-12-12-12------10-10-10-10------8-8-|
8-8------------12-12--------------7-7-----|
* *  *  *  *  * *  *  *  *  *  *  * * * *


B
------------------------------------------------------|
------------------------------------------------------|
------------------------------------------------------|
-0-0-0-0-0-0-0-00-0-0-0-0-0-0-0-00-0-0-0-0-0-0-0-00---|
-0-0-0-0-0-0-0-00-0-0-0-0-0-0-0-00-0-0-0-0-0-0-0-00---|
-0-0-0-0-0-0-0-00-0-0-0-0-0-0-0-00-0-0-0-0-0-0-0-00---|
 * * * * * * * ** * * * * * * * ** * * * * * * * **

L
-------------------------------------|
-------------------------------------|
-------------------------------------|
-------------------------------------|
-----8-8-8-8-----7-7-7-7-----7-7-----|
-5-5---------8-8---------3-3---------|
 * * * * * * * * * * * * * * * *
R
------------------------------------------|
------------------------------------------|
------------------------------------------|
------------------------------------------|
----12-12-12-12------10-10-10-10------8-8-|
8-8------------12-12--------------7-7-----|
* *  *  *  *  * *  *  *  *  *  *  * * * *


L
-----------------------------------------------------|
-----------------------------------------------------|
--------10-9-10-9--7-9-----------------10-5-10-9-10--|
-0-------X-X--X-X--X-X---0--------------X-X--X-X--X--|
-0-------8-7--8-7--5-7---0--------------8-3--8-7--8--|
-0-----------------------0---------------------------|
R
------------------------------------------------------|
------------------------------------------------------|
--------14-12-14-1210-12--------------14-10-14-12--14-|
-0-------X--X--X--X-X--X--0------------X-X---X--X---X-|
-0------12-10-12-10-8-10--0-----------12-8--12-10--12-|
-0------------------------0---------------------------|


L
-------------------------------------------|
-------------------------------------------|
-------------------------------------------|
-------------------------------------------|
-----8-8-8-8-----7-7-7-7-----7-7--0--------|
-5-5---------8-8---------3-3------0--------|
                                   |
R
-----------------------------------------------|
-----------------------------------------------|
-----------------------------------------------|
-----------------------------------------------|
----12-12-12-12------10-10-10-10-----8-8-0-----|
8-8------------12-12-------------7-7-----0-----|
                                          |

L
-------------------------------------------|
-------------------------------------------|
-------------------------------------------|
-------------------------------------------|
-----8-8-8-8-----7-7-7-7----7-7-0----------|
-5-5---------8-8--------3-3-----0----------|
                                  |
R
----------------------------------------------|
----------------------------------------------|
----------------------------------------------|
----------------------------------------------|
----12-12-12-12-----10-10-10-10-----8-8-0-----|
8-8------------12-12------------7-7-----0-----|
                                          |
Tap to rate this tab
 
# A B C D E F G H I J K L M N O P Q R S T U V W X Y Z