Song name
# A B C D E F G H I J K L M N O P Q R S T U V W X Y Z

Parkway Drive - Samsara tab

PARKWAY DRIVE
 
SAMSARA 

A-E-A-D-F#-B

TABBED BY andherembrace


0:24


CLEAN                                                __
----------------------------------------------------/  \----------|
---------------6-------------------------6--------10-11-10--------|
-----------------------------------------------------------10-12--|
--------8-7-8------8----7---------8-7-8------8--------------------|
------------------------------------------------------------------|
-5---------------------------5------------------------------------|

L DIST GTR HARMONY FADES IN                          __
----------------------------------------------------/  \----------|
--------------------------------------------------13-15-13--------|
-----------------------------------------------------------14-15--|
------------------------------------------------------------------|
------------------------------------------------------------------|
------------------------------------------------------------------|

R DIST GTR  FADES IN
---------------------------------------------------------------|
---------------------------------------------------------------|
---------------------------------------------------------------|
---------------------------------------------------------------|
---------------------------------------------------------------|
-5-------------------------------------------------------------|
                  

CLEAN                                                __
----------------------------------------------------/  \----------|
---------------6-------------------------6--------10-11-10--------|
-----------------------------------------------------------10-12--|
--------8-7-8------8----7---------8-7-8------8--------------------|
------------------------------------------------------------------|
-5---------------------------5------------------------------------|

L DIST GTR HARMONY                                   __
----------------------------------------------------/  \----------|
--------------------------------------------------13-15-13--------|
-----------------------------------------------------------14-15--|
------------------------------------------------------------------|
------------------------------------------------------------------|
------------------------------------------------------------------|

R DIST GTR  
---------------------------------------------------------------|
---------------------------------------------------------------|
---------------------------------------------------------------|
---------------------------------------------------------------|
---------------------------------------------------------------|
-5-------------------------------------------------------------|
                  
CLEAN                                                __
----------------------------------------------------/  \----------|
---------------6-------------------------6--------10-11-10--------|
-----------------------------------------------------------10-12--|
--------8-7-8------8----7---------8-7-8------8--------------------|
------------------------------------------------------------------|
-5---------------------------5------------------------------------|

L DIST GTR HARMONY                                   __
----------------------------------------------------/  \----------|
--------------------------------------------------13-15-13--------|
-----------------------------------------------------------14-15--|
------------------------------------------------------------------|
------------------------------------------------------------------|
------------------------------------------------------------------|

R DIST GTR  
---------------------------------------------------------------|
---------------------------------------------------------------|
---------------------------------------------------------------|
---------------------------------------------------------------|
---------------------------------------------------------------|
-5-------------------------------------------------------------|
                  
CLEAN                                                __
----------------------------------------------------/  \----------|
---------------6-------------------------6--------10-11-10--------|
-----------------------------------------------------------10-12--|
--------8-7-8------8----7---------8-7-8------8--------------------|
------------------------------------------------------------------|
-5---------------------------5------------------------------------|

L DIST GTR HARMONY                                   __
----------------------------------------------------/  \----------|
--------------------------------------------------13-15-13--------|
-----------------------------------------------------------14-15--|
------------------------------------------------------------------|
------------------------------------------------------------------|
------------------------------------------------------------------|

R DIST GTR  
---------------------------------------------------------------|
---------------------------------------------------------------|
---------------------------------------------------------------|
---------------------------------------------------------------|
---------------------------------------------------------------|
-5-------------------------------------------------------------|
                  
CLEAN                                                __
----------------------------------------------------/  \----------|
---------------6-------------------------6--------10-11-10--------|
-----------------------------------------------------------10-12--|
--------8-7-8------8----7---------8-7-8------8--------------------|
------------------------------------------------------------------|
-5---------------------------5------------------------------------|

L DIST GTR HARMONY                                   __
----------------------------------------------------/  \----------|
--------------------------------------------------13-15-13--------|
-----------------------------------------------------------14-15--|
------------------------------------------------------------------|
------------------------------------------------------------------|
------------------------------------------------------------------|

R DIST GTR 
---------------------------------------------------------------|
---------------------------------------------------------------|
---------------------------------------------------------------|
---------------------------------------------------------------|
---------------------------------------------------------------|
-5-------------------------------------------------------------|
                  
CLEAN                                                
---------------------------------------------------------|
---------------6-------------------------6---------------|
---------------------------------------------------------|
--------8-7-8------8----7---------8-7-8------8-----------|
---------------------------------------------------------|
-5---------------------------5---------------------------|

L DIST GTR HARMONY                         
---------------------------------------------------------|
---------------------------------------------------------|
---------------------------------------------------------|
---------------------------------------------------------|
---------------------------------------------------------|
---------------------------------------------------------|

R DIST GTR 
---------------------------------------------------------|
---------------------------------------------------------|
---------------------------------------------------------|
---------------------------------------------------------|
---------------------------------------------------------|
-5-------------------------------------------------------|
                  



1:12

---------------------------------------------------------------|
---------------------------------------------------------------|
---------------------------------------------------------------|
--0--0---0---0--0----------------0--0---0---0--0---------------|
--0--0---0---0--0----------------0--0---0---0--0---------------|
--0--0---0---0--0----------------0--0---0---0--0---------------|
  *  *   *   *  *                *  *   *   *  *
                S                              S

--------------------------------------|
--------------------------------------|
--------------------------------------|
--0--0---0---0--0---2--2---3---3--2---|
--1--1---1---1--1---3--3---3---3--3---|
--1--1---1---1--1---3--3---3---3--3---|
  *  *   *   *  *   *  *   *   *  *

---------------------------------------------------------------|
---------------------------------------------------------------|
---------------------------------------------------------------|
--0--0---0---0--0----------------0--0---0---0--0---------------|
--0--0---0---0--0----------------0--0---0---0--0---------------|
--0--0---0---0--0----------------0--0---0---0--0---------------|
  *  *   *   *  *                *  *   *   *  *
                S                              S

--------------------------------------|
--------------------------------------|
--------------------------------------|
--0--0---0---0--0---2--2---3---3--2---|
--1--1---1---1--1---3--3---3---3--3---|
--1--1---1---1--1---3--3---3---3--3---|
  *  *   *   *  *   *  *   *   *  *

---------------------------------------------------------------|
---------------------------------------------------------------|
---------------------------------------------------------------|
--0--0---0---0--0----------------0--0---0---0--0---------------|
--0--0---0---0--0----------------0--0---0---0--0---------------|
--0--0---0---0--0----------------0--0---0---0--0---------------|
  *  *   *   *  *                *  *   *   *  *
                S                              S

-----------------------------------------------------|
-----------------------------------------------------|
-----------------------------------------------------|
--0--0---0---0--0---2--2---3---3--2---0--0---0---0--0|
--1--1---1---1--1---3--3---3---3--3---0--0---0---0--0|
--1--1---1---1--1---3--3---3---3--3---0--0---0---0--0|
  *  *   *   *  *   *  *   *   *  *   *  *   *   *  *
Tap to rate this tab
 
# A B C D E F G H I J K L M N O P Q R S T U V W X Y Z