Song name
# A B C D E F G H I J K L M N O P Q R S T U V W X Y Z

Parkway Drive - Moments In Oblivion tab

PARKWAY DRIVE

MOMENTS IN OBLIVION

B-F#-B-E-G#-C#

TABBED BY andherembrace



1
--------------------------------------------------|
--------------------------------------------------|
-7-----7-----7-----7-----3-----3-----5-----5------|
----7-----7-----7-----7-----3-----3-----5-----5---|
--------------------------------------------------|
--------------------------------------------------|
2
--------------------------------------------------|
--------------------------------------------------|
---------------------------------------5-7-5------|
---------------------------------------x-x-x------|
-0-----------------7-5-3-0---3-5-3-0---3/5-3------|
-0-----------------7-5-3-0---3-5-3-0--------------|
                   * * *     * * *  

1
--------------------------------------------------|
--------------------------------------------------|
-7-----7-----7-----7-----3-----3-----5-----5------|
----7-----7-----7-----7-----3-----3-----5-----5---|
--------------------------------------------------|
--------------------------------------------------|
2
--------------------------------------------------|
--------------------------------------------------|
---------------------------------------5-7-5------|
---------------------------------------x-x-x------|
-0-----------------7-5-3-0---3-5-3-0---3/5-3------|
-0-----------------7-5-3-0---3-5-3-0--------------|
                   * * *     * * *  

1
--------------------------------------------------|
--------------------------------------------------|
-7-----7-----7-----7-----3-----3-----5-----5------|
----7-----7-----7-----7-----3-----3-----5-----5---|
--------------------------------------------------|
--------------------------------------------------|
2
--------------------------------------------------|
--------------------------------------------------|
---------------------------------------5-7-5------|
---------------------------------------x-x-x------|
-0-----------------7-5-3-0---3-5-3-0---3/5-3------|
-0-----------------7-5-3-0---3-5-3-0--------------|
                   * * *     * * *  

1
--------------------------------------------------|
--------------------------------------------------|
-7-----7-----7-----7-----3-----3-----5-----5------|
----7-----7-----7-----7-----3-----3-----5-----5---|
--------------------------------------------------|
--------------------------------------------------|
2
--------------------------------------------------|
--------------------------------------------------|
---------------------------------------5-7-5------|
---------------------------------------x-x-x------|
-0-----------------7-5-3-0---3-5-3-0---3/5-3------|
-0-----------------7-5-3-0---3-5-3-0--------------|
                   * * *     * * *  
1
--------------------------------------------------|
--------------------------------------------------|
-7-----7-----7-----7-----3-----3-----5-----5------|
----7-----7-----7-----7-----3-----3-----5-----5---|
--------------------------------------------------|
--------------------------------------------------|
2
--------------------------------------------------|
--------------------------------------------------|
---------------------------------------5-7-5------|
---------------------------------------x-x-x------|
-0-----------------7-5-3-0---3-5-3-0---3/5-3------|
-0-----------------7-5-3-0---3-5-3-0--------------|
                   * * *     * * *  

1
--------------------------------------------------|
--------------------------------------------------|
-7-----7-----7-----7-----3-----3-----5-----5------|
----7-----7-----7-----7-----3-----3-----5-----5---|
--------------------------------------------------|
--------------------------------------------------|
2
--------------------------------------------------|
--------------------------------------------------|
---------------------------------------5-7-5------|
---------------------------------------x-x-x------|
-0-----------------7-5-3-0---3-5-3-0---3/5-3------|
-0-----------------7-5-3-0---3-5-3-0--------------|
                   * * *     * * *  
1
--------------------------------------------------|
--------------------------------------------------|
-7-----7-----7-----7-----3-----3-----5-----5------|
----7-----7-----7-----7-----3-----3-----5-----5---|
--------------------------------------------------|
--------------------------------------------------|
2
--------------------------------------------------|
--------------------------------------------------|
---------------------------------------5-7-5------|
---------------------------------------x-x-x------|
-0-----------------7-5-3-0---3-5-3-0---3/5-3------|
-0-----------------7-5-3-0---3-5-3-0--------------|
                   * * *     * * *  

1
--------------------------------------|
--------------------------------------|
-7-----7-----7-----7-----3-----3------|
----7-----7-----7-----7-----3-----3---|
--------------------------------------|
--------------------------------------|
2
-----------------------------------------|
-----------------------------------------|
-----------------------------------------|
-----------------------------------------|
-0-----------------7-5-3-0---3-5-3-0-----|
-0-----------------7-5-3-0---3-5-3-0-----|
                   * * *     * * *  


0:44

1
--------------------------------------------------------------|
--------------------------------------------------------------|
--------------------------------------------------------------|
---___--------------------------___-----------------^---------|
--/   \--3---------------------/   \--3-----/7--7-7/8\7-5-----|
-0-3-5-7---7-5--5/7-----------0-3-5-7---7-5-------------------|

2
--------------------------------------------------------------|
--------------------------------------------------------------|
--------------------------------------------------------------|
-----------------3---------------------------7-----------5----|
-----------------3---------------------------7-----------5----|
-----------------3---------------------------7-----------5----|



1
--------------------------------------------------------------------|
--------------------------------------------------------------------|
---------------------------------------------------------_----------|
---___-----------------------^-------___----------------/ \---------|
--/   \--3-----------5/7-7-7/8\7----/   \--3-----------5-7-5-3--2~--|
-0-3-5-7---7-5--5/7----------------0-3-5-7---7-5--5/7---------------|

2
--------------------------------------------------------------------|
---------------------------------------------------------------PH---|
----------------------------------------------------------------3~~-|
-----------------3---------------------------7-----------5----------|
-----------------3---------------------------7-----------5----------|
-----------------3---------------------------7-----------5----------|


0;57

1
----------------------------------------------|
----------------------------------------------|
----------------------------------------------|
----------------___-----------------^---------|
---------------/   \--3-----/7--7-7/8\7-5-----|
-/7-----------0-3-5-7---7-5-------------------|

2
-----------------------------------------------|
-----------------------------------------------|
-----------------------------------------------|
--3---------------------------7-----------5----|
--3---------------------------7-----------5----|
--3---------------------------7-----------5----|



1
--------------------------------------------------------------------|
--------------------------------------------------------------------|
---------------------------------------------------------_----------|
---___-----------------------^-------___----------------/ \---------|
--/   \--3-----------5/7-7-7/8\7----/   \--3-----------5-7-5-3--2~--|
-0-3-5-7---7-5--5/7----------------0-3-5-7---7-5--5/7---------------|

2
--------------------------------------------------------------------|
--------------------------------------------------------------------|
--------------------------------------------------------------------|
-----------------3---------------------------7-----------5----------|
-----------------3---------------------------7-----------5----------|
-----------------3---------------------------7-----------5----------|



1:08


CUTS IN AT END OF PREVIOUS RIFF

1 (MOST AUDILBLE HARMONY)
----------------------------------------------------------|
----------------------------------------------------------|
------9----------------------9----------------9-----------|
-9-10---10-10~~~~-------9-10---10-10~----9-10---10-7~-----|
----------------------------------------------------------|
----------------------------------------------------------|
 *  *                   *  *             *  *
2 HIGHER HARMONY
----------------------------------------------------------|
----------------------------------------------------------|
------12---------------------12----------------12---------|
12-14----14-14~~~~-----12-14----14-14~---12-14----14-10~--|
----------------------------------------------------------|
----------------------------------------------------------|
 *  *                   *  *              *  *     
3 RYTHM
----------------------------------------------------------|
----------------------------------------------------------|
----------------------------------------------------------|
-3----------------------7-----------------5---------------|
-3----------------------7-----------------5---------------|
-3----------------------7-----------------5---------------|



1
---------------------------------------------------------------|
---------------------------------------------------------------|
------9------12~~~~------------------9----------------9--------|
-9-10---10-9--------------------9-10---10-10~----9-10---10-7~--|
---------------------------------------------------------------|
---------------------------------------------------------------|
 *  *    * *                    *  *             *  *

-----------------------------------------------------------------|
-----------------------------------------------------------------|
------12-------16~~~~----------------12----------------12--------|
12-14----14-12-----------------12-14----14-14~---12-14----14-10~-|
-----------------------------------------------------------------|
-----------------------------------------------------------------|
 *  *     *  *                  *  *              *  *
3
----------------------------------------------------------|
----------------------------------------------------------|
----------------------------------------------------------|
-3----------------------7-----------------P---------------|
-3----------------------7------------------S--------------|
-3----------------------7-------------------\-------------|



1
---------------------------------------------------------------|
---------------------------------------------------------------|
------9~-----10-9--------------------9----------------9--------|
-9-10-------------10~-----------9-10---10-10~----9-10---10-7~--|
---------------------------------------------------------------|
---------------------------------------------------------------|
 *  *                           *  *             *  *

-----------------------------------------------------------------|
-----------------------------------------------------------------|
------12~----14-12------------------12----------------12---------|
12-14-------------14~---------12-14----14-14~---12-14----14-10~--|
-----------------------------------------------------------------|
-----------------------------------------------------------------|
 *  *                          *  *              *  *
3
----------------------------------------------------------|
----------------------------------------------------------|
----------------------------------------------------------|
-3----------------------7-----------------5---------------|
-3----------------------7-----------------5---------------|
-3----------------------7-----------------5---------------|



1
-------------------------------------------------------------------|
-------------------------------------------------------------------|
---9--9--9-7-7-7-5-5-7-7-7-5-5-5------9------12~~~9-10-7-9-5-7-4---|
7-10-10-10-9-9-9-7-7-9-9-9-7-7-7-9-10---10-9---------------------5-|
-------------------------------------------------------------------|
-------------------------------------------------------------------|
                                 *  *    * *
2
--------------------------------------------------------------------|
--------------------------------------------------------------------|
---121212101010-9-9101010-9-9-9------12-----16~~12-14-10-12-9-10-7--|
10-1414141212121010121212101010-12-14--14-12----------------------9-|
--------------------------------------------------------------------|
--------------------------------------------------------------------|
                                 *  *   *  *
3
--------------------------------------------------------------------|
--------------------------------------------------------------------|
--------------------------------------------------------------------|
-3------------------------------------7-----------------------------|
-3------------------------------------7-----------------------------|
-3------------------------------------7-----------------------------|


1 #=VIBRATO+QUICKLY TOUCH STRING WHERE YOU PICK TO TURN INTO FEEDBACK
---------------------------------------------------------------|
---------------------------------------------------------------|
---------------------------------------------------------------|
-5/7~~----------------------------------------#----------------|
---------------------------------------------------------------|
---------------------------------------------------------------|
2 
---------------------------------------------------------------|
---------------------------------------------------------------|
---------------------------------------------------------------|
-9/10~~---------------------------------------#----------------|
---------------------------------------------------------------|
---------------------------------------------------------------|
3
---------------------------------------------------------------|
---------------------------------------------------------------|
---------------------------------------------------------------|
--3------------------------------------------------------------|
--3------------------------------------------------------------|
--3------------------------------------------------------------|


Tap to rate this tab
# A B C D E F G H I J K L M N O P Q R S T U V W X Y Z