Song name
# A B C D E F G H I J K L M N O P Q R S T U V W X Y Z

Parkway Drive - Begin tab

PARKWAY DRIVE

BEGIN 

B-F#-B-E-G#-C#




fades in

------7----------7----------8----------12-----|
---10---10----10---10----12---12----10----10--|
-9---------10---------12---------12-----------|
----------------------------------------------|
----------------------------------------------|
----------------------------------------------|


------7----------7----------8----------12-----|
---10---10----10---10----12---12----10----10--|
-9---------10---------12---------12-----------|
----------------------------------------------|
----------------------------------------------|
----------------------------------------------|


------7----------7----------8----------12-----|
---10---10----10---10----12---12----10----10--|
-9---------10---------12---------12-----------|
----------------------------------------------|
----------------------------------------------|
----------------------------------------------|


------7----------7----------8----------12-----|
---10---10----10---10----12---12----10----10--|
-9---------10---------12---------12-----------|
----------------------------------------------|
----------------------------------------------|
----------------------------------------------|


0:23

1
------7----------7----------8----------12-----|
---10---10----10---10----12---12----10----10--|
-9---------10---------12---------12-----------|
----------------------------------------------|
----------------------------------------------|
----------------------------------------------|
2
-12----12----10----10----8----8-10-------12----|
----10----10----13----13---12------13-12----12-|
-----------------------------------------------|
-----------------------------------------------|
-----------------------------------------------|
-----------------------------------------------|



1
------7----------7----------8----------12-----|
---10---10----10---10----12---12----10----10--|
-9---------10---------12---------12-----------|
----------------------------------------------|
----------------------------------------------|
----------------------------------------------|
2
-12----12----10----10----8----8-10-------12----|
----10----10----13----13---12------13-12----12-|
-----------------------------------------------|
-----------------------------------------------|
-----------------------------------------------|
-----------------------------------------------|


1
------7----------7----------8----------12-----|
---10---10----10---10----12---12----10----10--|
-9---------10---------12---------12-----------|
----------------------------------------------|
----------------------------------------------|
----------------------------------------------|
2
-12----12----10----10----8----8-10-------12----|
----10----10----13----13---12------13-12----12-|
-----------------------------------------------|
-----------------------------------------------|
-----------------------------------------------|
-----------------------------------------------|

1
------7----------7----------8----------12-----|
---10---10----10---10----12---12----10----10--|
-9---------10---------12---------12-----------|
----------------------------------------------|
----------------------------------------------|
----------------------------------------------|
2
-12----12----10----10----8----8-10-------12----|
----10----10----13----13---12------13-12----12-|
-----------------------------------------------|
-----------------------------------------------|
-----------------------------------------------|
-----------------------------------------------|
Tap to rate this tab
# A B C D E F G H I J K L M N O P Q R S T U V W X Y Z