Song name
# A B C D E F G H I J K L M N O P Q R S T U V W X Y Z

Parkway Drive - Wild Eyes tab

PARKWAY DRIVE

WILD EYES SOLO

B-F#-B-E-G#-C#

TABBED BY: LeonPWD

1:44

E|------------------------------------------------------------------------|
B|-----------------------------3-3---3-----3-3---3------------------------|
G|---------------------------5-----5---5-5-----5---5----------------------|
D|------------------------------------------------------------------------|
A|------------------------------------------------------------------------|
E|------------------------------------------------------------------------|

1:51

E|---------------------------------5--5-3--3------------------------------|
B|---3-3---3--------3------------------------5b~--5-6-8b~-----------------|
G|-5-----5---5-----------5------------------------------------------------|
D|-------------5~-------------5-------------------------------------------|
A|------------------------------------------------------------------------|
E|------------------------------------------------------------------------|

1:59

E|------------------------------------------------------------------------|
B|---3-3---3--------3--------------6h3---3h6h3---3h6h3---3h6h3---3--------|
G|-5-----5---5-----------5-------------5-------5-------5-------5----------|
D|-------------5~-------------5-------------------------------------------|
A|------------------------------------------------------------------------|
E|------------------------------------------------------------------------|
E|------------------------------------------------------------------------|

Cont.

E|-------------------------5b~--3b~---------------------------------------|
B|-8h5---5h8h5---5h8h5---5------------------------------------------------|
G|-----7-------7-------7--------------------------------------------------|
D|------------------------------------------------------------------------|
A|------------------------------------------------------------------------|
E|------------------------------------------------------------------------|
E|------------------------------------------------------------------------|
Tap to rate this tab
 
# A B C D E F G H I J K L M N O P Q R S T U V W X Y Z