Song name
# A B C D E F G H I J K L M N O P Q R S T U V W X Y Z

Parkway Drive - Emotional Breakdown tab

Parkway Drive
Emotional Breakdown

a bit messy but its right


|------------------------------------------|
|------------------------------------------|
|-7/13~----10/7~---------------------------|
|-x--x------x--x---------------------------|
|-9/11~----8/9~----------------------------|
|------------------------------------------|

|----------------------------------------------------|
|----------------------------------------------------|
|----------------------------------------------------|
|-----------------------------------------------|x12-|
|------13----11----9----8----4----8----4/6-----------|
|-0-0-----0-----0----0----0----0----0----------------|
   * *
|----------------------------------------------|
|----------------------------------------------|
|------15-16-------13-15------10/11------------|
|------13-14-------11-13-------8/9-------------|x4
|------13-14-------11-13-------8/9-------------|
|-000--------0-0---------0-0-------------------|

|-------------------------------------------------|
|-------------------------------------------------|
|-------------------------------------------------|
|-------------------------------------------------|
|-00000-0-0---0---0-0---0-0-----------------------|
|-00000-0-0---0---0-0---0-0-----------------------|

|--------------------------------------------------------------------------|
|--------------------------------------------------------------------------|
|--------------------------------9-----------------------------------------|
|--------------------------------x-----------------------------------------|x3
|-00000-0-0---0---0-0---0-0-7--0-0-0---0-0---0---0-0---0-0-----------------|
|-00000-0-0---0---0-0---0-0----0-0-0---0-0---0---0-0---0-0-----------------|

|--------------------------------------|
|--------------------------------------|
|--------------------------------9-----|
|--------------------------------x-----|
|-00000-0-0---0---0-0---0-0-7----------|
|-00000-0-0---0---0-0---0-0------------|

|-------------------------------------------------|
|-------------------------------------------------|
|-------------------------------------------------|
|-------------------------------------------------|x4
|------13----11----9----8----4----8----4/6--------|
|-0-0-----0-----0----0----0----0----0-------------|

|------------------------------|
|------------------------------|
|------------------------------|
|------------------------------|x6
|-00000~------00000~-----------|
|-00000~------00000~-----------|

|----------------------------------------------------|
|----------------------------------------------------|
|-----------11-------------11--------11\10-----------|
|-----------x--------------x----------x\x------------|
|-00000---9---00000---9---000---9\8------------------|
|-00000-------00000--------000-----------------------|

|----------------------------------------------------|
|----------------------------------------------------|
|-----------11-------------11--------11\13-----------|
|-----------x--------------x----------x\x------------|
|-00000---9---00000---9---000---9\11-----------------|
|-00000-------00000--------000-----------------------|

|----------------------------------------------------|
|----------------------------------------------------|
|-----------15-------------15----------15\14---------|
|-----------x--------------x------------x\-x---------|
|-00000---13---00000---13---000---13\12--------------|
|-00000--------00000---------000---------------------|

|----------------------------------------------------|
|----------------------------------------------------|
|-----------15-------------15----------15\16---------|
|-----------x--------------x------------x\-x---------|
|-00000---13---00000---13---000---13\14--------------|
|-00000--------00000---------000---------------------|

|------------------------------------------------------------|
|------------------------------------------------------------|
|------13\11----11\10----13\11----11\10----11\10-------------|
|------x-\x-----x\10-----x-\x------x\x------x\x--------------|x4
|-0-0-11\9-----9\8------11\9------9\8------9\8---------------|
|-0-0--------0---------0---------0---------0-----------------|


|----------------------------------------------------|
|----------------------------------------------------|
|-16\15---15\13---13\11--11\10--10\6-----------------|
|--x\-x----x\-x----x\x----x\x----x\x-----------------|x4
|-14\13---13\11---11\9----9\8----8\4-----------------|
|0-------0--------0--------0------0------------------|

|------------------------------------------|
|------------------------------------------|
|-7/13~----10/7~---------------------------|
|-x--x------x--x---------------------------|
|-9/11~----8/9~----------------------------|
|------------------------------------------|
Tap to rate this tab
 
# A B C D E F G H I J K L M N O P Q R S T U V W X Y Z