Song name
# A B C D E F G H I J K L M N O P Q R S T U V W X Y Z

Parkway Drive - Picture Perfect Pathetic Up To Lifeless tab

hey this is alex again with anotehr parkway song this one i particulary ;ike because of 
drum mainly coz there awesome

song = picture perfect, pathetic
band = parkway drive \m/
tabbed by = alex z


legend

b = bend
r = release bend
p = pulloff
h = hammer on
/ = slide up
\ = slide down

first sickest drum roll wooooooooooo thats the shit


guitar kicks in with this


------------------------------------------------------------------|
------------------------------------------------------------------|
------------------------------------------------------------------|
-----------------------0------------------------------------------|
-------0h5h8---0h3h7---0--------8----5------------0h5h8--0h3h7----|
-----------------------0--0--0-----0----0--0----------------------|

------------------------------------------------------------------|
------------------------------------------------------------------|
------------------------------------------------------------------|
--0----------------------------------------0----------------------|
--0--------10---8------------0h5h8--0h3h7--0--------8---5---------|
--0--0--0-----0----0--0--------------------0--0--0----0----0--0---|

--------------------------------------------------------------------------|
--------------------------------------------------------------------------|
--------------------------------------------------------------------------|
-(-10-10-10-10-8-8-8-8-7-7-7-7-7-7-7-7-8-8-8-8-7-7-7-7-5-5-5-5-3-3-3-3-)--|
--------------------------------------------------------------------------|
--------------------------------------------------------------------------|
                          /\
                         /  \
                          ||

           alll this played threw intro


play this instead of wats in the brakets on the last time u play threw the intro thingy

------------------------------------------------------------|
------------------------------------------------------------|
--------------------7-5-3-2-5-3-2-0-------------------------|
--10-8-7-5-8-7-5-3------------------------------------------|
------------------------------------------------------------|
------------------------------------------------------------|


alright thats the intro thing now its to the main part of song

--------------------------------------------------------------------------|
--------------------------------------------------------------------------|
-----------------------------------------------------------0h10h12--------|
-------7-----------5---7------------------------------------------0h10h12-|
-0-0-------8---5-----------8---7h8-----8---10---7---8---10----------------|
-0-0-----0---0---0---0---0---0-----0-0---0----0---0---0-------------------|


--------------------------------------------------------------------------|
--------------------------------------------------------------------------|
--------------------------------------------------------------------------|
-------7------------5---7-------------------------------------------------|
-0-0-------8---5-----------8---7h8-----8---10---7---8---10----------------|
-0-0-----0---0---0---0---0---0-----0-0---0----0---0---0-------------------|

----------------------------------|
----------------------------------|
----------------------------------|
----------------------------------|
-12-12p8-12-12p8-10p7-10p7--------|
----------------------------------|

then on the last time of the verse play this continuesly

----------------------------------------------------------------------|
----------------------------------------------------------------------|
-0h10h12---------0h10h12---------0h10h12---------0h10h12--------------|
---------0h10h12---------0h10h12---------0h10h12---------0h10h12------|
----------------------------------------------------------------------|
----------------------------------------------------------------------|

now the next part

--------------------------------------------------------------------|
--------------------------------------------------------------------|
--------------------------------------------------------------------|
--8p0---------------8p0-------8p0-10p0-8p0-7p0--8p0-----------------|
------------0----------------------------------------0-0-0-0-0-0-0--|
------0-0-0-0-0-0-0-----0-0-0------------------------0-0-0-0-0-0-0--|

LIFELESS AHHHHHHHHHHHHHHHHHHHHHHHHHHHHHHHHHHHHHHHHHHHHHHHHHHHHHHH

------------------------------------------------|
------------------------------------------------|
------------------------------------------------|
--8p0---------------8p0-------8p0-10p0-8p0-7p0--|
------------0-----------------------------------|
------0-0-0-0-0-0-0-----0-0-0-------------------| continue with this x3

then it goes

----------------------------------------------------------------|
----------------------------------------------------------------|
----------------------------------------------------------------|
--8p0---------------8p0-------8p0-10p0-8p0---8p0----------------|
------------0------------------------------------------0--------|
------0-0-0-0-0-0-0-----0-0-0--------------------0-0-0-0--------|


---------------------------------------|
---------------------------------------|
---------------------------------------|
-8p0-------7-7-8-8-10-10-8-8-----------|
---------------------------------------|
-----0-0-0-----------------------------|x3


then finally

-----------------------------------------------|
-----------------------------------------------|
-----------------------------------------------|
-8p0-----------8p0-----------------------------|
------------0-------------16\------------------|
------0-0-0-0------0-0-0--16\------------------|


drum fills again

intro thingy again


------------------------------------------------------------------|
------------------------------------------------------------------|
------------------------------------------------------------------|
-----------------------0------------------------------------------|
--------0h5h8--0h3h7---0--------8----5------------0h5h8--0h3h7----|
-----------------------0--0--0-----0----0--0----------------------|

------------------------------------------------------------------|
------------------------------------------------------------------|
------------------------------------------------------------------|
--0----------------------------------------0----------------------|
--0--------10---8------------0h5h8--0h3h7--0--------8---5---------|
--0--0--0-----0----0--0--------------------0--0--0----0----0--0---|

--------------------------------------------------------------------------|
--------------------------------------------------------------------------|
--------------------------------------------------------------------------|
-(-10-10-10-10-8-8-8-8-7-7-7-7-7-7-7-7-8-8-8-8-7-7-7-7-5-5-5-5-3-3-3-3-)--|
--------------------------------------------------------------------------|
--------------------------------------------------------------------------|x1


again play this instead of wats in the brakets on the last time u play threw the intro thingy

------------------------------------------------------------|
------------------------------------------------------------|
--------------------7-5-3-2-5-3-2-0-------------------------|
--10-8-7-5-8-7-5-3------------------------------------------|
------------------------------------------------------------|
------------------------------------------------------------|

now this is nearly done.. this is the full hardcore part which is the best

--------------------------------------------------------------------------|
--------------------------------------------------------------------------|
--------------------------------------------------------------------------|
--------------------------------------------------------------------------|
-0-0-0-0-0--0-0-0-0-0--0-0-0-0-0-0-0-0-0-0-0-0--0-0-0-0-0--0-0-0--0-0-0---|
-0-0-0-0-0--0-0-0-0-0--0-0-0-0-0-0-0-0-0-0-0-0--0-0-0-0-0--0-0-0--0-0-0---|x4

then add this in after that breakdown.... this part use tremelo bar and dive

------------------------------|
--3b*--\----------------------|
--dive--\---------------------|
---------\--------------------|
----------\-------------------|
------------------------------|

now the breakdown but even slower


----------------------------------------------------------------|
----------------------------------------------------------------|
----------------------------------------------------------------|
----------------------------------------------------------------|
-0-0-0-0-0--0-0-0-0-0--0-0-0-0-0--0-0-0-0-0---------------------|
-0-0-0-0-0--0-0-0-0-0--0-0-0-0-0--0-0-0-0-0-x2--pick-scrap------|

then finish with this

-----------------------------------------------------------------|
-----------------------------------------------------------------|
-----------------------------------------------------------------|
-----------------------------------------------------------------|let-ring
-0-0-0-0-0--0-0-0-0-0--0-0-0-0-0-0-0-0-0-0-0-0-0--0-0-0-0-0------|
-0-0-0-0-0--0-0-0-0-0--0-0-0-0-0-0-0-0-0-0-0-0-0--0-0-0-0-0------|x1


finished at last well that is lyk spot on dude hi 5 even the strum pattern everything is sweet

this was very hard to work out but i did it



alex z

go parkway
Tap to rate this tab
 
# A B C D E F G H I J K L M N O P Q R S T U V W X Y Z