Song name
# A B C D E F G H I J K L M N O P Q R S T U V W X Y Z

Parkway Drive - Swallowing Razorblades tab

Help us improve GuitareTab! Take a short survey!
Artist: Parkway Drive
Album : Dont Close Your Eye's 2006 re-release
Song  : Swallowing Razorblades

Tuning - (low to high)B,F#,B,F,G#,C#

Intro Riff

Guitar one
C# |---------------------------------------------------------|
G# |---------------------------------------------------------|
F  |---------------------------------------------------------|
B  |-9-------9--------8--------------------------------------| X 4
F# |-----6-------6---------4---------------------------------|
B  |---------------------------------------------------------|

Guitar two (comes in after intro is played twice
C# |---------------------------------------------------------|
G# |---------------------------------------------------------|
F  |-11-----10-------13--------------------------------------|
B  |-----8-------6--------10---------------------------------| X 2
F# |---------------------------------------------------------|
B  |---------------------------------------------------------|

Guitar one tremolo picked
C# |---------------------------------------------------------|
G# |---------------------------------------------------------|
F  |---------------------------------------------------------|
B  |-9-------9--------8--------------------------------------| X 4
F# |-----6-------6---------4---------------------------------|
B  |---------------------------------------------------------|


_____________________________________________________________

0:24 seconds

Guitar one (high notes)
C# |------------------------------------6-4---6-4-------------------|
G# |------------7-9-9-6h7p6-----------------7-----7-6---------------|
F  |----------8-------------6-8-----------------------6-------------|
B  |----------------------------------------------------------------|
F# |-0-0-0-0-------------------0-0-0-0------------------------------|
B  |-0-0-0-0-------------------0-0-0-0------------------------------|--    . . . .       
           . . . .

C# |-----------------------------------------6-4---6~---------------|
G# |-----------11-9-7-9--7-6h7p6-----------------7-----7--6---------|
F  |-----------------------------6-8--------------------------------|
B  |----------------------------------------------------------------|
F# |-0-0-0-0------------------------0-0-0-0-------------------------|
B  |-0-0-0-0------------------------0-0-0-0-------------------------|-
     . . . .                        . . . .

C# |------------------------------------------6-4---6---------------|
G# |-----------11-9-7-9--7-6h7p6------------------7-----7--6--------|
F  |-----------------------------6-8--------------------------------|
B  |----------------------------------------------------------------|
F# |-0-0-0-0-------------------------0-0-0-0------------------------|
B  |-0-0-0-0-------------------------0-0-0-0------------------------|-
     . . . .                        . . . .
C# |-----------------------------------------6-4---6~---------------|
G# |------------7-9-9-6h7p6----------------------7-----7-6----------|
F  |----------8-------------6-8----------------------------------=--|
B  |----------------------------------------------------------------|
F# |-0-0-0-0------------------------0-0-0-0-------------------------|
B  |-0-0-0-0------------------------0-0-0-0-------------------------|--
     . . . .                   . . . .

Dont know guitar two _____________________________________________________________________

0:48

C# |-----|------------------------------------------------------------|
G# |-----|------------------------------------------------------------|
F  |-----|------------------------------------------------------------|
B  |-----|------------------------------------------------------------| X 8
F# |-000-|---8-7---10-7-5---7-8-8-------------------------------------|
B  |-000-|-------0---------0------0-----------------------------------|
     ...

C# |----------------------------------------------------------------------|
G# |----------------------------------------------------------------------|
F  |----------------------------------------------------------------------|
B  |---10-9---12-9-7---9-10-10--------------------------------------| X 4-|
F# |----8-7---10-7-5---7-8--8--0------------------------------------------|
B  |--------0--------0---------0------------------------------------------|


C# |------------------------------------------------------------|
G# |------------------------------------------------------------|
F  |------------------------------------------------------------|
B  |------------------------------------------------------------| X 4
F# |---8-7---10-5---7-8-8---------------------------------------|
B  |-------0------0---------------------------------------------|
     ....
Dont know guitar two ____________________________________________________________________

1:25

C# |--------------------|---------------------------------------------|
G# |--------------------|---------------------------------------------|
F  |--------------------|-10-10-10--8-8-8--6-6-6--8-8-8--6-6--5-5--X 2|
B  |--------------------|---------------------------------------------|
F# |-6~---4~---6~---4~--|---------------------------------------------|
B  |-6~---4~---6~---4~--|---------------------------------------------|

C# |--------------------|---------------------------------------------|
G# |--------------------|---------------------------------------------|
F  |--------------------|-10-10-10--8-8-8--6-6-6--8-8-8--6-6--5-5--X 2|
B  |--------------------|---------------------------------------------|
F# |-6~---4~---6~---4~--|---------------------------------------------|
B  |-6~---4~---6~---4~--|---------------------------------------------|

C# |----------------------------------------------------------------|
G# |----------------------------------------------------------------|
F  |-11----11----10-----11----11----10------------------------------|
B  |-----8-----8-----6------8-----8-----6---------------------------|
F# |----------------------------------------------------------------|
B  |----------------------------------------------------------------|

C# |----------------------------------------------------------------|
G# |----------------------------------------------------------------|
F  |-10-10-10--8-8-8--6-6-6--8-8-8--6-6--5-5------------------------|
B  |----------------------------------------------------------------| X 2
F# |----------------------------------------------------------------|
B  |----------------------------------------------------------------|

C# |----------------------------------------------------------------|
G# |----------------------------------------------------------------|
F  |-11----11----10-----11----11----10------------------------------|
B  |-----8-----8-----6------8-----8-----6---------------------------|
F# |----------------------------------------------------------------|
B  |----------------------------------------------------------------|

C# |----------------------------------------------------------------|
G# |----------------------------------------------------------------|
F  |-10-10-10--8-8-8--6-6-6--8-8-8--10-10-10--6-6-------------------|
B  |----------------------------------------------------------------| X 2
F# |----------------------------------------------------------------|
B  |----------------------------------------------------------------|

C# |----------------------------------------------------------------|
G# |----------------------------------------------------------------|
F  |-11----11----10-----11----11----10------------------------------|
B  |-----8-----8-----6------8-----8-----6---------------------------| X 2
F# |----------------------------------------------------------------|
B  |----------------------------------------------------------------|

C# |----------------------------------------------------------------|
G# |----------------------------------------------------------------|
F  |-11----11----10-----11----11-----13-----------------------------|
B  |-----8-----8-----6------8-----8-----11--------------------------|
F# |----------------------------------------0~~~--------------------|
B  |----------------------------------------0~~~--------------------|

Dont know guitar two..

sorry i dont know the rest of the song either, but those are the best parts anyway, its 
great song and not hard 2 play
Related for Swallowing Razorblades tab