Song name
# A B C D E F G H I J K L M N O P Q R S T U V W X Y Z

Parkway Drive - I Watched tab

I Watched                                     
Parkway Drive
Track 1



     W                   W                   W                 
D||-------------------|-------------------|-------------------|
A||-------------------|-------------------|-------------------|
F||-------------------|-------------------|-------------------|
C||--0----------------|--L----------------|--L----------------|
G||--0----------------|--L----------------|--L----------------|
C||--0----------------|--L----------------|--L----------------|


                                                   PM PM         
  W                   W                   H        S. S. Q    S  
-------------------|-------------------|------------------------|
-------------------|-------------------|------------------------|
-------------------|-------------------|------------------------|
--L----------------|--L----------------|--0---------------------|
--L----------------|--L----------------|--0--------1--1---------|
--L----------------|--L----------------|--0--------1--1---------|


           PM PM                    PM PM                    PM PM         
  H        S. S. Q    S    H        S. S. Q    S    H        S. S. Q    S  
------------------------|------------------------|------------------------|
------------------------|------------------------|------------------------|
------------------------|------------------------|------------------------|
--0---------------------|--0---------------------|--0---------------------|
--0--------1--1---------|--0--------1--1---------|--0--------1--1---------|
--0--------1--1---------|--0--------1--1---------|--0--------1--1---------|


    H        H           W                 4x
|---------------------|--------------------||
|---------------------|--------------------||
|*--------------------|-------------------*||
|*--0--------1--------|--3----------------*||
|---0--------1--------|--3-----------------||
|---0--------1--------|--3-----------------||


  T T T T T T T T T T T T  T  T  T  T T T T T T T T T T T T T T T T T  
----------------------------------------------------------------------|
----------------------------------------------------------------------|
----------------------------------------------------------------------|
----------------------------------------------------------------------|
--6-6-6-6-5-5-5-5-8-8-8-8-10-10-10-10-6-6-6-6-5-5-5-5-8-8-8-8-3-3-3-3-|
----------------------------------------------------------------------|


  T T T T T T T T T T T T  T  T  T  T T T T T T T T T T T T T T T T T  
----------------------------------------------------------------------|
----------------------------------------------------------------------|
----------------------------------------------------------------------|
----------------------------------------------------------------------|
--6-6-6-6-5-5-5-5-8-8-8-8-10-10-10-10-6-6-6-6-5-5-5-5-8-8-8-8-3-3-3-3-|
----------------------------------------------------------------------|


  T T T T T T T T T T T T  T  T  T  T T T T T T T T T T T T T T T T T  
----------------------------------------------------------------------|
----------------------------------------------------------------------|
----------------------------------------------------------------------|
----------------------------------------------------------------------|
--6-6-6-6-5-5-5-5-8-8-8-8-10-10-10-10-6-6-6-6-5-5-5-5-8-8-8-8-3-3-3-3-|
----------------------------------------------------------------------|


  T T T T T T T T T T T T  T  T  T  T T T T T T T T T T T T T T T T T  
----------------------------------------------------------------------|
----------------------------------------------------------------------|
----------------------------------------------------------------------|
----------------------------------------------------------------------|
--6-6-6-6-5-5-5-5-8-8-8-8-10-10-10-10-6-6-6-6-5-5-5-5-8-8-8-8-3-3-3-3-|
----------------------------------------------------------------------|


  T T T T T T T T T T T T  T  T  T  T T T T T T T T T T T T T T T T T  
----------------------------------------------------------------------|
----------------------------------------------------------------------|
----------------------------------------------------------------------|
----------------------------------------------------------------------|
--6-6-6-6-5-5-5-5-8-8-8-8-10-10-10-10-6-6-6-6-5-5-5-5-8-8-8-8-3-3-3-3-|
----------------------------------------------------------------------|


  T T T T T T T T T T T T  T  T  T  T T T T T T T T T T T T T T T T T  
----------------------------------------------------------------------|
----------------------------------------------------------------------|
----------------------------------------------------------------------|
----------------------------------------------------------------------|
--6-6-6-6-5-5-5-5-8-8-8-8-10-10-10-10-6-6-6-6-5-5-5-5-8-8-8-8-3-3-3-3-|
----------------------------------------------------------------------|


  T T T T T T T T T T T T  T  T  T  T T T T T T T T T T T T T T T T T  
----------------------------------------------------------------------|
----------------------------------------------------------------------|
----------------------------------------------------------------------|
----------------------------------------------------------------------|
--6-6-6-6-5-5-5-5-8-8-8-8-10-10-10-10-6-6-6-6-5-5-5-5-8-8-8-8-3-3-3-3-|
----------------------------------------------------------------------|


  T T T T T T T T T T T T  T  T  T  T T T T T T T T T T T T T T T T T  
----------------------------------------------------------------------|
----------------------------------------------------------------------|
----------------------------------------------------------------------|
----------------------------------------------------------------------|
--6-6-6-6-5-5-5-5-8-8-8-8-10-10-10-10-6-6-6-6-5-5-5-5-8-8-8-8-3-3-3-3-|
----------------------------------------------------------------------|


  T T T T T T T T T T T T  T  T  T  T T T T T T T T T T T T T T T T T  
----------------------------------------------------------------------|
----------------------------------------------------------------------|
----------------------------------------------------------------------|
----------------------------------------------------------------------|
--6-6-6-6-5-5-5-5-8-8-8-8-10-10-10-10-6-6-6-6-5-5-5-5-8-8-8-8-3-3-3-3-|
----------------------------------------------------------------------|


  T T T T T T T T T T T T  T  T  T  T T T T T T T T T T T T T T T T T  
----------------------------------------------------------------------|
----------------------------------------------------------------------|
----------------------------------------------------------------------|
----------------------------------------------------------------------|
--6-6-6-6-5-5-5-5-8-8-8-8-10-10-10-10-6-6-6-6-5-5-5-5-8-8-8-8-3-3-3-3-|
----------------------------------------------------------------------|


  PM PM    PM PM    PM PM                PM PM    PM PM    PM PM                
  S  S  E  S  S  E  S  S  E  S  S  E     S  S  E  S  S  E  S  S  E  S   S S  S  
--------------------------------------|----------------------------------------|
--------------------------------------|----------------------------------------|
-----------------------------7s-5s-8--|-----------------------------7S-10-5S-8-|
--------------------------------------|----------------------------------------|
--0--0--0--0--0--0--0--0--0--5s-3s-6--|--0--0--0--0--0--0--0--0--0--5S--8-3S-6-|
--0--0--0--0--0--0--0--0--0-----------|--0--0--0--0--0--0--0--0--0-------------|


  PM PM    PM PM    PM PM                PM PM    PM PM    PM PM                
  S  S  E  S  S  E  S  S  E  S  S  E     S  S  E  S  S  E  S  S  E  S   S S  S  
--------------------------------------|----------------------------------------|
--------------------------------------|----------------------------------------|
-----------------------------7s-5s-8--|-----------------------------7S-10-5S-8-|
--------------------------------------|----------------------------------------|
--0--0--0--0--0--0--0--0--0--5s-3s-6--|--0--0--0--0--0--0--0--0--0--5S--8-3S-6-|
--0--0--0--0--0--0--0--0--0-----------|--0--0--0--0--0--0--0--0--0-------------|


    PM PM    PM PM    PM PM              
    S  S  E  S  S  E  S  S  E  S  S  E   
|---------------------------------------|
|---------------------------------------|
|*-----------------------------7s-5s-8--|
|*--------------------------------------|
|---0--0--0--0--0--0--0--0--0--5s-3s-6--|
|---0--0--0--0--0--0--0--0--0-----------|


  PM PM    PM PM    PM PM                                       
  S  S  E  S  S  E  S  S  E  S   S S  S       W                 
-----------------------------------------||--------------------|
-----------------------------------------||--------------------|
-----------------------------7S-10-5S-8-*||*-------------------|
----------------------------------------*||*--0----------------|
--0--0--0--0--0--0--0--0--0--5S--8-3S-6--||---0----------------|
--0--0--0--0--0--0--0--0--0--------------||---0----------------|


  H        H              W                   H        H           
---------------------||--------------------|---------------------||
---------------------||--------------------|---------------------||
--------------------*||*-------------------|--------------------*||
--1--------3--------*||*--0----------------|--1--------3--------*||
--1--------3---------||---0----------------|--1--------3---------||
--1--------3---------||---0----------------|--1--------3---------||


  H        H           T T T T S S T T T T S S T T T T S S S S E    
--------------------|----------------------------------------------|
--------------------|----------------------------------------------|
--------------------|----------------------------------------------|
--1--------3--------|--------------------------------------7-------|
--1--------3--------|--0-0-0-0-0---0-0-0-0-0---0-0-0-0-0-----8-7~--|
--1--------3--------|--0-0-0-0-0---0-0-0-0-0---0-0-0-0-0-----------|


  T T T T S S T T T T S S T T T T S S S S  E    
-----------------------------------------------|
-----------------------------------------------|
-----------------------------------------------|
--------------------------------------7---10~--|
--0-0-0-0-0---0-0-0-0-0---0-0-0-0-0-----8------|
--0-0-0-0-0---0-0-0-0-0---0-0-0-0-0------------|


  T T T T S S T T T T S S T T T T S S S S E    
----------------------------------------------|
----------------------------------------------|
----------------------------------------------|
--------------------------------------7-------|
--0-0-0-0-0---0-0-0-0-0---0-0-0-0-0-----8-7~--|
--0-0-0-0-0---0-0-0-0-0---0-0-0-0-0-----------|


  T T T T S S T T T T S S T T T T S S S S  E    
-----------------------------------------------|
-----------------------------------------------|
-----------------------------------------------|
--------------------------------------7---10~--|
--0-0-0-0-0---0-0-0-0-0---0-0-0-0-0-----8------|
--0-0-0-0-0---0-0-0-0-0---0-0-0-0-0------------|


  T T T T S S T T T T S S T T T T S S S S E    
----------------------------------------------|
----------------------------------------------|
----------------------------------------------|
--------------------------------------7-------|
--0-0-0-0-0---0-0-0-0-0---0-0-0-0-0-----8-7~--|
--0-0-0-0-0---0-0-0-0-0---0-0-0-0-0-----------|


  T T T T S S T T T T S S T T T T S S S S  E    
-----------------------------------------------|
-----------------------------------------------|
-----------------------------------------------|
--------------------------------------7---10~--|
--0-0-0-0-0---0-0-0-0-0---0-0-0-0-0-----8------|
--0-0-0-0-0---0-0-0-0-0---0-0-0-0-0------------|


  T T T T S S T T T T S S T T T T S S S S E    
----------------------------------------------|
----------------------------------------------|
----------------------------------------------|
--------------------------------------7-------|
--0-0-0-0-0---0-0-0-0-0---0-0-0-0-0-----8-7~--|
--0-0-0-0-0---0-0-0-0-0---0-0-0-0-0-----------|


  T T T T S S T T T T S S T T T T S S    S S  E      W                 
--------------------------------------|-----------|-------------------|
--------------------------------------|-----------|-------------------|
--------------------------------------|-----------|-------------------|
--------------------------------------|--7---10~--|--0----------------|
--0-0-0-0-0---0-0-0-0-0---0-0-0-0-0---|----8------|--0----------------|
--0-0-0-0-0---0-0-0-0-0---0-0-0-0-0---|-----------|--0----------------|


                                                              PM PM       
  W                   W                   W                   E  E  Q     
-------------------|-------------------|-------------------|-------------|
-------------------|-------------------|-------------------|-------------|
-------------------|-------------------|-------------------|-------------|
--L----------------|--L----------------|--L----------------|-------------|
--L----------------|--L----------------|--L----------------|--0--0--0----|
--L----------------|--L----------------|--L----------------|--0--0--0----|


  PM PM         PM PM                        PM PM         PM PM       
  E  E  Q       E  E  Q       E  E  E  E     E  E  Q       E  E  Q     
-------------|-------------|--------------|-------------|-------------|
-------------|-------------|--------------|-------------|-------------|
-------------|-------------|--------------|-------------|-------------|
-------------|-------------|--7-----------|-------------|-------------|
--0--0--0----|--0--0--0----|-----8--7--8--|--0--0--0----|--0--0--0----|
--0--0--0----|--0--0--0----|--------------|--0--0--0----|--0--0--0----|


  PM PM                         PM PM         PM PM         PM PM       
  E  E  Q       E  E  E   E     E  E  Q       E  E  Q       E  E  Q     
-------------|---------------|-------------|-------------|-------------|
-------------|---------------|-------------|-------------|-------------|
-------------|---------------|-------------|-------------|-------------|
-------------|--7--------10--|-------------|-------------|-------------|
--0--0--0----|-----8--7------|--0--0--0----|--0--0--0----|--0--0--0----|
--0--0--0----|---------------|--0--0--0----|--0--0--0----|--0--0--0----|


                 PM PM         PM PM         PM PM                       
  E  E  E  E     E  E  Q       E  E  Q       E  E  Q       E  E  E   E   
--------------|-------------|-------------|-------------|---------------|
--------------|-------------|-------------|-------------|---------------|
--------------|-------------|-------------|-------------|---------------|
--7-----------|-------------|-------------|-------------|--7--------10--|
-----8--7--8--|--0--0--0----|--0--0--0----|--0--0--0----|-----8--7------|
--------------|--0--0--0----|--0--0--0----|--0--0--0----|---------------|


    PM PM         PM PM         PM PM                        PM PM       
    E  E  Q       E  E  Q       E  E  Q       E  E  E  E     E  E  Q     
|--------------|-------------|-------------|--------------|-------------|
|--------------|-------------|-------------|--------------|-------------|
|*-------------|-------------|-------------|--------------|-------------|
|*-------------|-------------|-------------|--7-----------|-------------|
|---0--0--0----|--0--0--0----|--0--0--0----|-----8--7--8--|--0--0--0----|
|---0--0--0----|--0--0--0----|--0--0--0----|--------------|--0--0--0----|


  PM PM         PM PM                           PM PM                       
  E  E  Q       E  E  Q       E  E  E   E       E  E  Q       E  E  E   E   
-------------|-------------|----------------||-------------|---------------|
-------------|-------------|----------------||-------------|---------------|
-------------|-------------|---------------*||-------------|---------------|
-------------|-------------|--7--------10--*||-------------|--7--------10--|
--0--0--0----|--0--0--0----|-----8--7-------||--0--0--0----|-----8--7------|
--0--0--0----|--0--0--0----|----------------||--0--0--0----|---------------|


    PM PM         PM PM         PM PM                        PM PM       
    E  E  Q       E  E  Q       E  E  Q       E  E  E  E     E  E  Q     
|--------------|-------------|-------------|--------------|-------------|
|--------------|-------------|-------------|--------------|-------------|
|*-------------|-------------|-------------|--------------|-------------|
|*--------0----|--------0----|--------0----|--------------|--------0----|
|---0--0--0----|--0--0--0----|--0--0--0----|--0--3--2--3--|--0--0--0----|
|---0--0--0----|--0--0--0----|--0--0--0----|--0--3--2--3--|--0--0--0----|


  PM PM         PM PM                           PM PM                   
  E  E  Q       E  E  Q       E  E  E  E        E  E  Q       H         
-------------|-------------|---------------||--------------|-----------|
-------------|-------------|---------------||--------------|-----------|
-------------|-------------|--------------*||*-------------|-----------|
--------0----|--------0----|-----------5--*||*--------0----|--L--------|
--0--0--0----|--0--0--0----|--0--3--2--3---||---0--0--0----|--L--------|
--0--0--0----|--0--0--0----|--0--3--2------||---0--0--0----|--L--------|


  H           H           H           H           H           H         
-----------|-----------|-----------|-----------|-----------|-----------|
-----------|-----------|-----------|-----------|-----------|-----------|
-----------|-----------|-----------|-----------|-----------|-----------|
--L--------|--L--------|--L--------|--L--------|--L--------|--L--------|
--L--------|--L--------|--L--------|--L--------|--L--------|--L--------|
--L--------|--L--------|--L--------|--L--------|--L--------|--L--------|


  H           H           H          
-----------|-----------|-----------||
-----------|-----------|-----------||
-----------|-----------|-----------||
--L--------|--L--------|--L--------||
--L--------|--L--------|--L--------||
--L--------|--L--------|--L--------||




Duration Legend
---------------
W - whole
H - half
Q - quarter
E - 8th
S - 16th
T - 32nd
X - 64th
. - note dotted
|-n-|  - n-tuplets


Tablature Legend
----------------
L - tied note
x - dead note
g - grace note
(n) - ghost note
> - accentuded note
NH - natural harmonic
AH - artificial harmonic
TH - tapped harmonic
SH - semi harmonic
PH - pitch harmonic
h - hammer on
p - pull off
b - bend
br - bendRelease
pb - preBend
pbr - preBendRelease
brb - bendReleaseBend
\n/ - tremolo bar dip
\n - tremolo bar dive
-/n - tremolo bar Release up
/n\ - tremolo bar inverted dip
/n - tremolo bar return
-\n - tremolo bar Release down
S - shift slide
s - legato slide
/ -  slide into from below or out of upwards
\ -  slide into from above or out of downwards
~ - vibrato
W - wide vibrato
tr - trill
TP - tremolo picking
T - tapping
S - slap
P - pop
< - fade in
^ - brush up
v - brush down
Tap to rate this tab
# A B C D E F G H I J K L M N O P Q R S T U V W X Y Z