Song name
# A B C D E F G H I J K L M N O P Q R S T U V W X Y Z

Parkway Drive - Youre Over tab

hey this is alex again with more parkway this hasnt been tabbed so im given it my best shot.

parkway drive = you're over
tuning = drop b
tabbed by = alex

legend

t = tapping
h = hammer on
p = pull off
/ = slide up
\ = slide down


intro (best part)


--------------------------------------------------------|
--------------------------------------------------------|
--------------------------------------------------------|
-----2--2-2-2h3p2-5p2-3p2-------------------------------|continue threw intro
-0-0----------------------------------------------------|
-0-0----------------------------------------------------|


after intro (this song doesnt really have verse and all that)

--------------------------------------------------------|
--------------------------------------------------------|
--------------------------------------------------------|
--------------------------------------------------------|
-0----0-0-0-0--4-7--3-----------------------------------|
-0----0-0-0-0--4-7--3-----------------------------------|

then the "open your eyes part"

---------------------------|-----------------------------|
---------------------------|-----------------------------|
---------------------------|-----------------------------|
-2-2-2-4-----------0-0-0-2-|-----------------------------|
---------0-0-0-0-0---------|x2-------7\5-5\3-------------|then this part
---------0-0-0-0-0---------|-----------------------------|

after that harmonising comes in

-----------------------------|---------------------------|
-----------------------------|---------------------------|
--9-9-9-11-----------7-7-7-9-|--------11\9-9\7-----------|then this part
-----------------------------|x2-------------------------|
-----------0-0-0-0-0---------|---------------------------|
-----------0-0-0-0-0---------|---------------------------|


then the little thing that goes into the bridge hardcore part

--5-3-2---3-2----------5-3-2---3-2-----------------------|
--------5-----5-3------------5-----5-3-------------------|
---------------------------------------------------------|
---------------------------------------------------------|
---------------------------------------------------------|
---------------------------------------------------------|

bridge part

---------------------------------------------------------|
---------------------------------------------------------|
----let-ring---------------------------------------------|
-0-------------------------------------------------------|
-0-------------------------------------------------------|
-0-------------------------------------------------------|

---------------------------------------------------------|
---------------------------------------------------------|
---------------------------------------------------------|
---------------------------------------------------------|
-0-0-0-0-0-0-0-0-0-0-0-0-0-0-0-0--0-7-0-3----------------|
-0-0-0-0-0-0-0-0-0-0-0-0-0-0-0-0--0-7-0-3----------------|

the next part

---------------------------|-----------------------------|
---------------------------|-----------------------------|
---------------------------|-----------------------------|
-2-2-2-4-----------0-0-0-2-|-----------------------------|
---------0-0-0-0-0---------|x2-------7\5-5\3-------------|then this part
---------0-0-0-0-0---------|-----------------------------|


then bridge thing again

---------------------------------------------------------|
---------------------------------------------------------|
---------------------------------------------------------|
---------------------------------------------------------|
-0-0-0-0-0-0-0-0-0-0-0-0-0-0-0-0--0-7-0-3----------------|
-0-0-0-0-0-0-0-0-0-0-0-0-0-0-0-0--0-7-0-3----------------|

then a little bit harder

---------------------------------------------------------------|
---------------------------------------------------------------|
---------------------------------------------------------------|
---------5p3p2---------------5p3p2---------------5p3p2---------|
-0-0--0--------5p3p2-0-0--0--------5p3p2-0-0--0--------5p3p2---|
-0-0--0--------------0-0--0--------------0-0--0----------------|

-------------------------------------------------|
-------------------------------------------------|
------7h8-5---2h3-0------------------------------|
-------------------------------------------------|
-0-0---------------------------------------------|
-0-0---------------------------------------------|

finish with

------------------------|
------------------------|
------------------------|
------------------------|
-0-0--------------------|
-0-0--------------------|

well thats it sounds sounds alright if i find out a new way ill fix it up but thats the 
way so far coz no one has tabbed it and thats sounds pretty right so hi 5 and go parkway dudes
Tap to rate this tab
 
# A B C D E F G H I J K L M N O P Q R S T U V W X Y Z