Song name
# A B C D E F G H I J K L M N O P Q R S T U V W X Y Z

Parkway Drive - Looks Like Yoda tab

yer this is looks like yoda the intro part and yer


tabbed by= alex z
song = looks like yoda
tunning = drop b


legend

p = pulloff
* = pinch harmonic
h = hammer on

yer the  intro

-----------------------------------------------|
-----------------------------------------------|
-----------------------------------------------|
-0-0-0-----------------------------------------|
-0-0-0-----------------------------------------|
-0-0-0-----------------------------------------|let ringx3 i think


tehn it goes

-------------------------------------------------|
-------------------------------------------------|
-------------------------------------------------|
-------------------------------------------------|
-0-0-5-5h6-5-5h6-8p6-6p5-------------------------|
-0-0---------------------------------------------|

-------------------------------------------------|
-------------------------------------------------|
-------------------------------------------------|
-----------------8p6-6p5-------------------------|
-0-0-5-5h6-5-5h6---------------------------------|
-0-0---------------------------------------------|

this aging

-------------------------------------------------|
-------------------------------------------------|
-------------------------------------------------|
-------------------------------------------------|
-0-0-5-5h6-5-5h6-8p6-6p5-------------------------|
-0-0---------------------------------------------|


---------------------------------------------|
---------------------------------------------|
---------------------------------------------|
---------------------------------------------|
--7-5-3-2*-----------------------------------|
---------------------------------------------|
Tap to rate this tab
# A B C D E F G H I J K L M N O P Q R S T U V W X Y Z