Guitaretab - guitar tabs
Song name
# A B C D E F G H I J K L M N O P Q R S T U V W X Y Z

Parkway Drive - Sirens Song tab

PARKWAY DRIVE - THE SIRENíS SONG

So, I worked this song out by watching the live videos on 
youtube. Whilst itís not always easy to hear whatís being 
played in bootleg videos.  

I havenít worried about harmonies yet, but thatís the easiest 
part to figure out once the main ideas are down.

Fans of Parkway Drive would be interested in my side project songs. Have a listen and send a friend request!
www.myspace.com/juzcook
www.myspace.com/triameraband

Tuning: Drop B

INTRO RIFF (Trem Picked)
0:01
C#|-20-15-20-15-------------------------------------|
G#|-------------20-16-20-16-------------------------|
E |-------------------------19-15-19-15-------19-15-|
B |-------------------------------------19-15-------|
F#|-------------------------------------------------|
B |-------------------------------------------------|

PRE-VERSE RIFF
0:20
C#|-------------------------|
G#|-------------------------|
E |-------------------------|
B |-------------------------|
F#|-0-----------0--0--0--0--|
B |-0-----------0--0--0--0--|

VERSE RIFF 1
0:22
C#|---------------------------------|
G#|---------------------------------|
E |---------------------------------|
B |---------------------------------|
F#|-----5---7-8-----3---5-7-----3h5-|
B |-0-0---0-----0-0---0-----0-0-----|

C#|---------------------------------|
G#|---------------------------------|
E |---------------------------------|
B |-----------------5-------7-5-----|
F#|-----5---7-8-------8-7-5-----8-7-|
B |-0-0---0-----0-0-----------------|

VERSE RIFF 2
0:41
C#|--------------------------------------------------------------------|
G#|--------------------------------------------------------------------|
E |--------------------------------------------------------------------|
B |--------------------------------------------------------------------|
F#|-8-5-0---------------------------8-5-0---------------5~8------7~10--|
B |-------8-5-0-0-0-000-000-000-000-------8-5-0-0-0-5-8-----7-10-------|

VERSE RIFF 2 FILL
Played at the end of every second run through.
0:49
C#|----------------------|
G#|----------------------|
E |----------------------|
B |----------------------|
F#|--------5---------8-7-|
B |--0h5h8----0h7h10-----|

BREAKDOWN 1
1:10
C#|-------------------------------|
G#|-------------------------------|
E |-------------------------------|
B |----x4--------x2---------x2----|
F#|-------------------------------|
B |-5p0h8p0---7p0h10p0---7p0h11p0-|

1:13
C#|-------------------------|-------------------------------|
G#|-------------------------|-------------------------------|
E |-------------------------|-------------------------------|
B |-------------------------|----x4--------x2---------x2----|
F#|-------------------------|-------------------------------|
B |-0-0---00-00-0-0---00-00-|-5p0h8p0---8p0h12p0---7p0h10p0-|
[ Tab from: http://www.guitaretab.com/p/parkway-drive/95791.html ]
1:19
C#|----------------------------|-------------------------------|
G#|----------------------------|-------------------------------|
E |----------------------------|-------------------------------|
B |----------------------------|----x4--------x2---------x2----|
F#|----------------------------|-------------------------------|
B |-0--0-----0--0-0--0----0--0-|-5p0h8p0---7p0h10p0---7p0h11p0-|

1:26
C#|-------------------------|-------------------------------|
G#|-------------------------|-------------------------------|
E |-------------------------|-------------------------------|
B |-------------------------|----x4--------x2---------x2----|
F#|-------------------------|-------------------------------|
B |-0-0---00-00-0-0---00-00-|--5p0h8p0---8p0h12p0---7p0h10p0-|

1:33
C#|----------------------------|----------------------------|
G#|----------------------------|----------------------------|
E |----------------------------|----------------------------|
B |----------------------------|----------------------------|
F#|----------------------------|----------------------------|
B |-0--0-----0--0-0--0----0-0=-|-0--0-----0--0-0--0----0--0-|

VERSE RIFF 2
1:39
C#|---------------------------------|
G#|---------------------------------|
E |---------------------------------|
B |---------------------------------|
F#|-----5---7-8-----3---5-7-----3h5-|
B |-0-0---0-----0-0---0-----0-0-----|

C#|---------------------------------|
G#|---------------------------------|
E |---------------------------------|
B |-----------------5-------7-5-----|
F#|-----5---7-8-------8-7-5-----8-7-|
B |-0-0---0-----0-0-----------------|

1:49
C#|-------------------------|
G#|-------------------------|
E |-------------------------|
B |-------------------------|
F#|-0-----------0--0--0--0--|
B |-0-----------0--0--0--0--|

VERSE RIFF 3
2:00
C#|-------------------------------|-------------------------------|
G#|-------------------------------|-------------------------------|
E |-------------------------------|-------------------------------|
B |---------------------5---------|-------------------------------|
F#|-----5--5------8-7---------7h8-|-----3--3------8-7---5-----3h5-|
B |-0-0-------0-0-----0---0-0-----|-0-0-------0-0-----0---0-0-----|

C#|----------------------------------|-------------------------------------|
G#|----------------------------------|-------------------------------------|
E |----------------------------------|-------------------------------------|
B |----------------------------------|-------7-----------------5--------3-2|
F#|-----5--5------7h8---8h10---10h12-|-0h5h8----------8--0h3h7-------------|
B |-0-0-------0-0-----0------0-------|----------0h5h8-------------0h3h7----|

BREAKDOWN 2
2:19
C#|----------------------------|
G#|----------------------------|
E |----------------------------|
B |----------------------------|
F#|-0--------------------0h1---|
B |-0--------------------0h1---|

C#|----------------------------------------------------|
G#|----------------------------------------------------|
E |----------------------------------------------------|
B |----------------------------------------------------|
F#|-0-----0---0--------0---0---0-----0---0---0----1----|
B |-0-0-0-0-0-0----0-0-0-0-0---0-0-0-0-0-0-0-0----1----|
PM   |---| |-|    |---| |-|     |---| |-| |-|

BREAKDOWN 2 FILL
0:20
C#|-------------------------|
G#|-------------------------|
E |-------------------------|
B |-------------------------|
F#|-3-0-1--1-0-3-1----------|
B |-3-0-1--1-0-3-1----------|
Related for Sirens Song tab