Guitaretab - guitar tabs
Song name
# A B C D E F G H I J K L M N O P Q R S T U V W X Y Z

Parkway Drive - Moments In Oblivion tab

PARKWAY DRIVE - MOMENTS IN OBLIVION

Short but sweet. Only part iím not sure about is the harmony of the melody at the end.

Fans of Parkway Drive would be interested in my side project songs. Have a listen and send a friend request!
www.myspace.com/juzcook
www.myspace.com/triameraband

Tuning: Drop B

INTRO RIFF (DIRTY)
0:00
C#|-----------------------------------|
G#|-----------------------------------|
E |----------------------------5s7s5--|
B |-----------------------------------|
F#|-0----3-5-3-0----3-5-3-0----3s5s3--|
B |-0----3-5-3-0----3-5-3-0-----------|

INTRO RIFF (CLEAN)
0:00
C#|---------------------------------|
G#|-3---3---3---3---3---3---3---3---|
E |---2---2---2---2---3---3---5---5-|
B |---------------------------------|
F#|---------------------------------|
B |---------------------------------|

RIFF 2
0:44
C#|----------------------------------------------|
G#|----------------------------------------------|
E |------------------------------9---9s10s9s7----|
B |----------------------------------------------|
F#|-------3----------------3-----7---7s8ss7s5----|
B |-0h3h5---5-3-7----0h3h5---5-3-----------------|
/// Guitar 1
\\\ Guitar 2
C#|----------------------------------------------|
G#|----------------------------------------------|
E |----------------------------------------------|
B |----------------------------------------------|
F#|-------------3----------------7---------------|
B |-------------3----------------7---------------|

C#|-----------------------------------------------------|
G#|-----------------------------------------------------|
E |----------------7s9-9-9--------------9---9s9s7s5--4--|
B |-----------------------------------------------------|
F#|-------3--------5s7-7-7--------3-----7---5s7s5s3--2--|
B |-0h3h5---5-3-7-----------0h3h5---5-3-----------------|
/// Guitar 1
\\\ Guitar 2
C#|-----------------------------------------------------|
G#|-----------------------------------------------------|
E |-------------------------------------------------<3>-|
B |-----------------------------------------------------|
F#|-5-----------3-----------------------7---------------|
B |-5-----------3-----------------------7---------------|
[ Tab from: http://www.guitaretab.com/p/parkway-drive/97157.html ]
RIFF 3 (UNSURE OF MELODY HARMONY)
1:09
C#|----------------------------------------------|
G#|---------5----------5------------5-----8------|
E |-5---4-5---5----4-5---5s2----4-5---5-5--------|
B |----------------------------------------------|
F#|----------------------------------------------|
B |----------------------------------------------|
/// Guitar 1
\\\ Guitar 2
C#|----------------------------------------------|
G#|----------------------------------------------|
E |----------------------------------------------|
B |----------------------------------------------|
F#|-3-------7----------5------------3------------|
B |-3-------7----------5------------3------------|

C#|--------------------------------------------------------------|
G#|-----5----------5------------5--h6p5----------5-------5-------|
E |-4-5---5----4-5---5s2----4-5---------5----4-5-----4-5---5s2---|
B |--------------------------------------------------------------|
F#|--------------------------------------------------------------|
B |--------------------------------------------------------------|
/// Guitar 1
\\\ Guitar 2
C#|--------------------------------------------------------------|
G#|--------------------------------------------------------------|
E |--------------------------------------------------------------|
B |--------------------------------------------------------------|
F#|-----7---------5-------------3----------------7-------5-------|
B |-----7---------5-------------3----------------7-------5-------|

C#|--------------------------------------------------------------------|
G#|-----5-5-5-3-3-3-1-1-3-3-3-1-1-1-----5-----8---6-8-5-6-3-5-1--------|
E |-4-5-----------------------------4-5---5-4--------------------0--2--|
B |--------------------------------------------------------------------|
F#|--------------------------------------------------------------------|
B |--------------------------------------------------------------------|
/// Guitar 1
\\\ Guitar 2
C#|--------------------------------------------------------------------|
G#|--------------------------------------------------------------------|
E |--------------------------------------------------------------------|
B |--------------------------------------------------------------------|
F#|-3-----------------------------------7---------5-----------------3--|
B |-3-----------------------------------7---------5-----------------3--|
Related for Moments In Oblivion tab