Parni Valjak - Zagreb Ima Isti Pozivni tab

-------------------------------------------------------------------------------
		Zagreb ima isti pozivni - Parni Valjak
-------------------------------------------------------------------------------
Tabbed by: Hrvoje Cule
Email:     hrvoje.cule@gmail.com

Tuning:    Standard

e|---------------------------------------------------------------------------|
B|---10-9----10-9-----------------10-9----10-9-------------------------------|
G|-------9--------9--11-11b-11--------9--------9--11-11b-11------------------|
D|--------9----------------------------9-------------------------------------|
A|---------------------------------------------------------------------------|
E|---------------------------------------------------------------------------|

e|---------------------------------------------------------------------------|
B|-----------------------------------12b12-----------------------------------
G|--------9----9---11b-11---11-13-14------14--11b11-9------------------------|
D|--9/11---11---11------------------------------------11---------------------|
A|---------------------------------------------------------------------------|
E|---------------------------------------------------------------------------|

e|---------------------------------------------------------------------------|
B|--------10-9----10-9--10-9--------------10---------------------------------|
G|------------9-------9-----9-9--------9------9------------------------------|
D|---9---------9------------------9-11---------------------------------------|
A|---------------------------------------------------------------------------|
E|---------------------------------------------------------------------------|




************************************

| /   slide up
| \   slide down
| h   hammer-on
| p   pull-off
| ~   vibrato
| +   harmonic
| x   Mute note
| b   Bend
| pb  Pre-bend
| br  Bend release
| pbr Pre-bend release
| brb Bend release bend

************************************
Tap to rate this tab
 
# A B C D E F G H I J K L M N O P Q R S T U V W X Y Z