Song name
# A B C D E F G H I J K L M N O P Q R S T U V W X Y Z

Parokya Ni Edgar - Lastikman tab

Title: Lastikman
Artist: Parokya ni Edgar
Album: "Solid"
Tabber: Rodel F. Fariņas
Friendster account: rain_aien0502@yahoo.com
Company: Absolute Service, Inc. (SBFZ)
Date: April 15, 2008

Intro: Solo

e---------------------------------------------------I
b--999-7-9-7--999-7-9-7--999-7-9-7--7---------------I
g----------------------------------8-8-66-4-6-8-----I
d---------------------------------------------------I
a---------------------------------------------------I
E---------------------------------------------------I

Adlib: This is incomplete...tamad na me e....

e-------------------------------------------------------------I
b--------4-------5/7-5-4----------4----------7h9-7-9-7--------I
g----4-6-----4-6---------4----4-6-----4-6-6/8-----8---8-6/8---I
d--6-------6----------------6-------6-------------------------I
a-------------------------------------------------------------I
E-------------------------------------------------------------I

continue...

e-----7h9-7-9-7----------7h9-7-9-7----------7h9-7-9-7-----9-7-11-9...----I
b--7h9-----9---9-7/9--7h9-----9---9-7/9--7h9-----9---9-7/9---------------I
g------------------------------------------------------------------------I
d------------------------------------------------------------------------I
a------------------------------------------------------------------------I
E------------------------------------------------------------------------I
Tap to rate this tab
 
# A B C D E F G H I J K L M N O P Q R S T U V W X Y Z