Song name
# A B C D E F G H I J K L M N O P Q R S T U V W X Y Z

Parokya Ni Edgar - Kaleidoscope tab

e-10h12------------------------------------------------------------------|
 b-------12-10h12----------------------------------------12-12-----------|
 g----------------12-11h12----12----------------------12-------12-14-----|
 d-------------------------12----12-12/14-12----12-14--------------------|
 a-------------------------------------------14--------------------------|
 e-----------------------------------------------------------------------|

 e----------|-10h12----------------------------------------------------|
 b----------|-------12-10h12----------------------------------------12-|
 g-12----12-|----------------12-11h12----12----------------------12----|
 d----14----|-------------------------12----12-12/14-12----12-14-------|
 a----------|-------------------------------------------14-------------|
 e----------|----------------------------------------------------------|

 e----------------------|-12-10----------------------------------------|
 b-12----13-12----------|-------12-10----------------------------------|
 g----12-------14-12-14-|-------------12-9-----------------------------|
 d----------------------|------------------12-9----------9-12----------|
 a----------------------|-----------------------12-10-12---------10-12-|
 e----------------------|-------------------------------------12-------|

 e------------------------------|-15h17-15-----------------------------|
 b------------------------------|----------15h17-15--------------------|
 g------------------12----12-14-|-------------------16----14-14/16-----|
 d----9-12-14-12-14----14-------|----------------------17----------17--|
 a-10---------------------------|--------------------------------------|
 e------------------------------|--------------------------------------|

 e---------------------------------------------------------------------|
 b----------------------------15-13-12---------------------------------|
 g-14-16-14----14-14/16----14----------14-12-11------------------------|
 d----------17----------17---------------------------------------------|
 a---------------------------------------------------------------------|
 e---------------------------------------------------------------------|

 e----------------------------------12-15------------------------------|
 b----------15----------13----------------15-13p12-13-12---------------|
 g-12-12-12----12-12-12----12-12-12------------------------------------|
 d---------------------------------------------------------------------| 2x
 a---------------------------------------------------------------------|
 e---------------------------------------------------------------------|

 e----------15-------------15-------------15----12---------------------|
 b-15-12-13-------15-12-13-------15-12-13----------13p12-13-12---------|
 g-------------12-------------12-------------12------------------------|
 d---------------------------------------------------------------------| 2x
 a---------------------------------------------------------------------|
 e---------------------------------------------------------------------|

  acoustic lang ang ginamit ko dito.....
Tap to rate this tab
# A B C D E F G H I J K L M N O P Q R S T U V W X Y Z