Song name
# A B C D E F G H I J K L M N O P Q R S T U V W X Y Z

Parokya Ni Edgar - Macho tab

Help us improve GuitareTab! Take a short survey!
---------------------------------------------------------------------------
			     SONG NAME - Band Name
---------------------------------------------------------------------------
Tabbed by:
Email:


===========================================================================

Tuning:e b g d A E

=============================================================================
  


Chorus-
GtrI&II
|----------------------------------|------------------------------|
|----------------------------------|------------------------------|
|-5555555---------5555555----------|-5555555---------55555-5-55---|
|-5555555-3333333-5555555-5555555--|-5555555-3333333-55555-5-55---|
|-3333333-3333333-3333333-5555555--|-3333333-3333333-33333-3-33---|
|---------1111111---------3333333--|---------1111111--------------|


Verse-
GtrI&II

|----------------------------------|
|----------------------------------|
|-5555555-----------------5555555--|
|-5555555-3333333-5555555-5555555--|2x
|-3333333-3333333-5555555-3333333--|
|---------1111111-3333333----------|

Repeat chorus
Repeat verse
Repeat chorus

Adlib-
GtrI


|----------------------------------|
|----------------------------------|
|-5555555-----------------5555555--|
|-5555555-3333333-5555555-5555555--|2x
|-3333333-3333333-5555555-3333333--|
|---------1111111-3333333----------|
GtrII
|------------------------------------|------------------------------------|
|------------------------------------|------------------------------------|
|-55555--9-10-9-7-5--------4-5-4-----|-55555--9-10-9-7-5--------4-5-5555--|
|-xxxxx--x-x--x-x-x-55555--x-x-x-7-5-|-xxxxx--x-x--x-x-x-55555--x-x-xxxx--|
|-33333--7-8--7-5-3-xxxxx--2-3-2-x-x-|-33333--7-8--7-5-3-xxxxx--2-3-3333--|
|-------------------33333--------5-3-|-------------------33333------------|

Chorus-
GtrI&II
|----------------------------------|------------------------------|
|----------------------------------|------------------------------|
|-5555555---------5555555----------|-5555555---------55555-5-55---|
|-5555555-3333333-5555555-5555555--|-5555555-3333333-55555-5-55---|
|-3333333-3333333-3333333-5555555--|-3333333-3333333-33333-3-33---|
|---------1111111---------3333333--|---------1111111--------------|



Chorus-
|--------------|
|--------------|
|-55555-5-55---|
|-55555-5-55---|2x
|-33333-3-33---|
|--------------|
Related for Macho tab