Guitaretab - guitar tabs
Song name
# A B C D E F G H I J K L M N O P Q R S T U V W X Y Z

Parokya Ni Edgar - 3 Stars And The Sun tab

Parokya Ni Edgar Inuman Sessions Vol.1
feat. Francis M
3 Stars and a Sun
Tabbed By: Janno Baio -- ninejanno.multiply.com/
/ - slide
h - hammer
v - vibrato

e-----------------------------------------|
B-----------------------------------------|
G--7--7-7---7--7-7---7--7-7---7--7-7-----|
D-7--7-----6--6-----5--5-----7--7--------|  (twice)
A-5--5--5--5--5--5--5--5--5--5--5-5-------|
E-----------------------------------------|


e-----------------------------------------|
B-----------------------------------------|
G777777--777777--777777--777777----------|
D777777--666666--555555--777777----------|
A-555555--555555--555555--555555----------|
E-----------------------------------------|

(much better to use vibrato in the start of adlib)

e------------------------------------------------------------------|
B------------------------------------------------------------------|
G------------------------------------------------------------------|
D---------15-16------------15-16-17-16-----------------------------|
A-17vvvv-17-----17vvvvv--17-----------17---------------------------|
E------------------------------------------------------------------|
[ Tab from: http://www.guitaretab.com/p/parokya-ni-edgar/181542.html ]
e----------          ----------------------------------------------|
B----------          ----------------------------------------------|
G----------(thrice)  ----------------------------------------------|
D----------          ----------------------------------------------|
A------15--          ----15h17-------------------------------------|
E-15/17----          -17-------------------------------------------|


e------------------------------------------------------------------|
B------22-20-19----------22-20-19----------------------------------|
G-17h19--------19---17h19--------19--17----------------------------|
D------------------------------------------------------------------|
A------------------------------------------------------------------|
E------------------------------------------------------------------|

e------15-- (thrice) ----15h17-------------------------------------|
B-15/17----          -17-------------------------------------------|
G------------------------------------------------------------------|
D------------------------------------------------------------------|
A------------------------------------------------------------------|
E------------------------------------------------------------------|
Related for 3 Stars And The Sun tab