Song name
# A B C D E F G H I J K L M N O P Q R S T U V W X Y Z

Parokya Ni Edgar - Silvertoes tab

-------------------------------------------------------------------------------
			     SILVERTOES - Parokya ni Edgar
-------------------------------------------------------------------------------
Tabbed by: Jomar Ebuenga
Email: th0inkz@yahoo.com

plz rate my tabs >.<

Tuning: Standard

e|-----------------------------------------------------------------------------|
B|--------------------------------------------------13-13-12----12-13-15-------|
G|---7/12p11----------------12-14p12p11----12-12/14----------14----------------|
D|-----------12-------12h14-------------14-------------------------------------|
A|--------------12h14----------------------------------------------------------|
E|-----------------------------------------------------------------------------|

e|------------------------------------15-14----------------------------------|
B|---15p13p12-13-------------------15-------15-------15-13-12-13-12----12----|
G|---------------14p12p11-12/16-16-------------14h16----------------14-------|
D|---------------------------------------------------------------------------|
A|---------------------------------------------------------------------------|
E|---------------------------------------------------------------------------|

e|-----------------------------------------------15-15-----------------------|
B|------------------------12--12-13p12--12-13/15-----------------------------|
G|---14^16v14p12----12--14--14--------14-------------------------------------|
D|---------------14----------------------------------------------------------|
A|---------------------------------------------------------------------------|
E|---------------------------------------------------------------------------|

e|------17-15p14----17-15-14-------------------------------------------------|
B|---15----------15----------15----------------12----------------------------|
G|------------------------------16-14-16p14\12----14p12----------------------|
D|------------------------------------------------------14p12----12----------|
A|------------------------------------------------------------14-------------|
E|---------------------------------------------------------------------------|

e|-----------------------------------------------------15-17p15----15-17^19--|
B|-------------------------------13-15p13----13--15/17----------17-----------|
G|---------12-14p12----12--12h14----------14---------------------------------|
D|---12h14----------14-------------------------------------------------------|
A|---------------------------------------------------------------------------|
E|---------------------------------------------------------------------------|

e|------19p15----19-17-15----------------15-17-19-19p17p15-------------------|
B|---17-------17----------19-17-15-17-19-------------------------------------|
G|---------------------------------------------------------------------------|
D|---------------------------------------------------------------------------|
A|---------------------------------------------------------------------------|
E|---------------------------------------------------------------------------|

e|------19p15-17p15----14-17p14-15p14----15-14-------------------------------|
B|---17-------------17----------------17-------17-15-------------------------|
G|---------------------------------------------------17-16-17p14-16p14-------|
D|---------------------------------------------------------------------17~\--|
A|---------------------------------------------------------------------------|
E|---------------------------------------------------------------------------|


| /  slide up
| \  slide down
| h  hammer-on
| p  pull-off
| ~  vibrato
| ^  bend up
| v  bend down
===============================================================================
Tap to rate this tab
# A B C D E F G H I J K L M N O P Q R S T U V W X Y Z