Song name
# A B C D E F G H I J K L M N O P Q R S T U V W X Y Z

Parokya Ni Edgar - Gitara tab

-------------------------------------------------------------------------------
			     Gitara - Parokya ni Edgar
-------------------------------------------------------------------------------
Tabbed by: JuNiE-JoY
     <>
       %Open for any corrections!%
Email: junie_cute243@yahoo.com


e|------------------------------6/7---5-7-8---12---10---7---8---5-----|
B|-2/3---3---3/5---7---10---8-----------------------------------------|
G|--------------------------------------------------------------------|
D|--------------------------------------------------------------------|
A|--------------------------------------------------------------------|
E|--------------------------------------------------------------------|

e|-----------------------------------6/7---5-7-8---15h-------------------------|
B|-2/3---3-3--3/5---7---10-8--10-8---------------------------------------------|
G|-----------------------------------------------------------------------------|
D|-----------------------------------------------------------------------------|
A|-----------------------------------------------------------------------------|
E|-----------------------------------------------------------------------------|

e|-----------------------------------------------------------------------------|
B|-3--3/5/7---/8/12---5---4---3--2---------------------------------------------|
G|-----------------------------------------------------------------------------|
D|-----------------------------------------------------------------------------|
A|-----------------------------------------------------------------------------|
E|-----------------------------------------------------------------------------|


| /  slide up
| \  slide down
 ===============================================================================
Tap to rate this tab
 
# A B C D E F G H I J K L M N O P Q R S T U V W X Y Z