Song name
# A B C D E F G H I J K L M N O P Q R S T U V W X Y Z

Parokya Ni Edgar - One And Only You chords

Highlighted       Show chord diagrams
Tabbed By: Taoman3000
Email: taoman3000@gmail.com

Hi sa mga tga NDSSM at sa Tupax Band
Para sayo to m3owqOuh^^ lahvyaverimats


Tuning: Half Step Down(Eb)(kung di kayo marunong ne2 may standard tuning variation sa baba)

Chord Patterns:

     C       G      Am       F      Fsus
e|---0---|---3---|---0---|---x---|---1---|
B|---1---|---0---|---1---|---1---|---1---|
G|---0---|---0---|---2---|---2---|---2---|
D|---2---|---0---|---2---|---3---|---3---|
A|---3---|---2---|---0---|---3---|---3---|
E|---0---|---3---|---0---|---x---|---x---|



1st verse: C G Am F-Fsus 4x

Chorus: C G F Am G C G Am F-Fsus

2nd verse: C G Am F-Fsus2x Am G F-Fsus2x

Chorus2x


x------------------------------------------------------x


Tuning: EADGBe

     B       F#     G#m      E      Esus
e|---x---|---x---|---x---|---x---|---x---|
B|---x---|---x---|---x---|---x---|---x---|
G|---4---|---3---|---4---|---1---|---2---|
D|---2---|---4---|---6---|---2---|---2---|
A|---2---|---4---|---6---|---2---|---2---|
E|---0---|---2---|---4---|---0---|---0---|


1st verse: B F# G#m E-Esus4x

Chorus: B F# E G#m F# B F# G#m E-Esus

2nd verse: B F# G#m E-Esus G#m F# E-Esus 2x

Chorus2x

Txt me: 09081260248
Tap to rate this tab
 
# A B C D E F G H I J K L M N O P Q R S T U V W X Y Z