Song name
# A B C D E F G H I J K L M N O P Q R S T U V W X Y Z

Parokya Ni Edgar - How To Make A Love Song tab

Tabbed by: Gian Carlo
Email: g11gs@myway.com
paki rate po pls ^^ salamat! any comments are welcome.

legends: 
  h -> hammer-on
  s -> slide
  x -> mute
This is how the way I play it in an acoustic guitar..


e -----------------------|--7-----5--------------|-3----2----------------|
B ----3------3-----------|------------7-----5--3-|-----------5-----3---2-|
G --------2--------------|-----------------------|-----------------------|
D -----------------------|-----------------------|-----------------------|
A -----------------------|-----------------------|-----------------------|
E -----------------------|-----------------------|-----------------------|
    1  &  2  &  3  &  4  &  1  &  2  &  3  &  4  &  1  &  2  &  3  &  4  &




e ---------5-------------|-------------3---3s5---|-9----10---------------|
B ---------5-------------|---3----3----3---3s5---|-10x------15----14--12-|
G --2------6-------------|------2----------------|-----------------------|
D -----------------------|-----------------------|-----------------------|
A -----------------------|-----------------------|-----------------------|
E -----------------------|-----------------------|-----------------------|
    1  &  2  &  3  &  4  &  1  &  2  &  3  &  4  &  1  &  2  &  3  &  4  &




e -10--10h12-------------|-12-14-15--------------|-----------------------|
B -----------10h12----10-|------------12-14-15---|--------------------15-|
G -----------------------|-----------------------|--11-12-14-------14----|
D -----------------------|-----------------------|-------------12--------|
A -----------------------|-----------------------|-----------------------|
E -----------------------|-----------------------|-----------------------|
    1  &  2  &  3  &  4  &  1  &  2  &  3  &  4  &  1  &  2  &  3  &  4  &




e -12-14-15--------------|-----------------------|-12-14-15--------------|
B -----------12-14-15----|---------------------15|------------12-14-15---|
G -----------------------|--11-12-14-------14----|-----------------------|
D -----------------------|-------------12--------|-----------------------|
A -----------------------|-----------------------|-----------------------|
E -----------------------|-----------------------|-----------------------|
    1  &  2  &  3  &  4  &  1  &  2  &  3  &  4  &  1  &  2  &  3  &  4  &





e -----------------------|--15---14---12---------|-17------17-------17---|
B -------------------15--|----------------15-----|-----15-------15-------|
G -11-12-14------14------|-----------------------|-----------------------|
D -----------12----------|-----------------------|-----------------------|
A -----------------------|-----------------------|-----------------------|
E -----------------------|-----------------------|-----------------------|
    1  &  2  &  3  &  4  &  1  &  2  &  3  &  4  &  1  &  2  &  3  &  4  &
Tap to rate this tab
# A B C D E F G H I J K L M N O P Q R S T U V W X Y Z