Song name
# A B C D E F G H I J K L M N O P Q R S T U V W X Y Z

Parokya Ni Edgar - Gitara tab

Gitara by Parokya ni edgar outro solo
tabbed by Ray kapayapaan

                                              
E--------------0--|--------------0--------|------2h3p2--------]
B----------0------|--------1--------1-----|-------------3-----]
G--------1---1----|-----2-----2--------2--|--0-------------2--]
D-----------------|-----------------------|-------------------]
A-----------------|--0--------------------|-------------------]
E--0--------------|-----------------------|-------------------]

E--------------------------------------------------]
B--------------------------------------------------]
G--9----9---9--7----7---7---5-------7--5-----------]
D--9--9---9----7--7---7-----5--5h7------7--5-------]
A--------------------------------------------7--5--]
E--------------------------------------------------]

E------5--5h7--5--------------------]
B--7--------------5--5h7--5---------]
G--5--------------------------7--5--]
D-----------------------------------]
A-----------------------------------]
E-----------------------------------]

E--------------------------------------------------------------------+12--]
B-----5h6p5h6---7p5--------------------------------------------------+12--]
G---------------6----5--5h7-5---------------------------------------------]
D--0------------5-------------5--5h7--5-----------------------------------]
A----------------------------------------5--5h7--5------------------------]
E-----------------------------------------------------5--5h7--5---0-------]

R8 nYoh Powh tAnxkZz:)
Suggestions?Violent Reactions?
Just Go to this address
19 sta.basura, sitio walang kwenta kung mag gitara, muntinlupa, philippines:)
Tap to rate this tab
 
# A B C D E F G H I J K L M N O P Q R S T U V W X Y Z