Parokya Ni Edgar - Pakiusap Lang Lasingin Nyo Ako tab

Intro: E-A-C#m-B 3x; E-A-B

|-12-11-12-----------------------------------------------|
|----------12-14-12------9----10-9----9-10---------------|
|-------------------9-11---11------11--------------------|
|--------------------------------------------------------|
|--------------------------------------------------------|
|--------------------------------------------------------|


|-12-11-12-----------------------------------------------|
|----------12-14-12------9----10-9-----------------------|
|-------------------9-11---11------11-9-11---------------|
|--------------------------------------------------------|
|--------------------------------------------------------|
|--------------------------------------------------------|


|-12-11-12-------11-12-11--------------------------------|
|----------12-14-----------------------------------------|
|--------------------------------------------------------|
|--------------------------------------------------------|
|--------------------------------------------------------|
|--------------------------------------------------------|



Verse: E-A-C#m-B 4x

Refrain: A-B 3x

Chorus: E-A-B 2x; C#m-B-E-A C#m-B

that's it! kayo na bahala kung me kulang. d:	
Tap to rate this tab
 
# A B C D E F G H I J K L M N O P Q R S T U V W X Y Z