Parokya Ni Edgar - Pakiusap Lang Lasingin Nyo Ako tab

Song Title:   Pakiusap Lang (Lasingin Nyo Ako) 
Band/Artist:  Parokya Ni Edgar
Album & Yr:   Middle-Aged Juvenile Novelty Pop Rockers(2010)
Tabbed by:    Pauz Prima (primesenthyx@yahoo.com)

-------------------------------------------------------------------------------------------------

INTRO: E-A-C#m-B(3x) E-A-B(break)

Guitar 1:

|-12-11-12--7-9-7--0-2-4-0--5-4-0-5--7/12-|-12-11-12--7-9-7--0-2-4-0--5-4-0-2-----|
|-----------------------------------------|-----------------------------------4/5-|
|-----------------------------------------|---------------------------------------|
|-----------------------------------------|---------------------------------------|
|-----------------------------------------|---------------------------------------|
|-----------------------------------------|---------------------------------------|

|-12-11-12--7-9-7--0-2-4-0--5-4-0-5--7/12-|-12-9-11----12-11-9--------|
|-----------------------------------------|---------12---------12\\~~-|
|-----------------------------------------|---------------------------|
|-----------------------------------------|---------------------------|
|-----------------------------------------|---------------------------|
|-----------------------------------------|---------------------------|

Guitar 2:

|---------------------|      |----------------|
|---------------------|      |----------------|
|-999x------66xx------| 3x   |-999x-----------|
|-999x-77xx-66xx-9999-|      |-999x-77x-9\\~~-|
|-777x-77xx-44xx-9999-|      |-777x-77x-9\\~~-|
|------55xx------7777-|      |------55x-7\\~~-|



VERSES: E-A-C#m-B (4x)

Guitar1:

|----------------------------------------|------------------------------------|
|----------------------------------------|------------------------------------|
|----------------------------------------|------------------------------------| 2x
|----------------------------------------|------------------------------------|
|-7-6-7----------------------------------|-7-6-7------------------------------|
|--------7-9-7--0-2-4-0--5-4-0-5--7/(12)-|-------7-9-7--0-2-4-2--5-4-2-4--5/7-|

Guitar 2:

|---------------------|
|---------------------|
|-999x------66xx------| 4x
|-999x-77xx-66xx-9999-|
|-777x-77xx-44xx-9999-|
|------55xx------7777-|



REFRAIN:

Guitar1 & 2: A-B (3x)

|---------------------|
|---------------------|
|---------------------| 3x
|-77777777-99999999---|
|-77777777-99999999---|
|-55555555-77777777---|



VERSE2: ---------------------------------------------------

REFRAIN2: -------------------------------------------------

CHORUS1: E--A-B(2x) C#m-B-E-(B)-A--C#m-B(break)

Guitar1:

|-------------------------------------|	
|-------------------------------------|	
|-999999-14-13-11-9-------------------| 2x	
|-999999-14-13-11-9-77777-9-9999-999--|	
|-777777-12-11-9--7-77777-9-9999-999--|	
|-------------------55555-7-7777-777--|

|-----------------------------------------------------------|
|-----------------------------------------------------------|
|-66666------------9-99-------------------------------------|
|-66666-9-9999-999-9-99-9-7-7777-777/1111111111111111-9\\~~-|
|-44444-9-9999-999-7-77-9-7-7777-777/1111111111111111-9\\~~-|
|-------7-7777-777------7-5-5555-555/9-9-9-9-9-9-9-9--7\\~~-|

Guitar2:

|-------------------------------------|	
|-------------------------------------|
|-99999999999999999-------------------| 2x
|-99999999999999999-77777-9-9999-999--|
|-77777777777777777-77777-9-9999-999--|	
|-------------------55555-7-7777-777--|

|-----------------------------------------------------------|
|-----------------------------------------------------------|
|-66666------------9-99-------------------------------------|
|-66666-9-9999-999-9-99-9-7-7777-777/1111111111111111-9\\~~-|
|-44444-9-9999-999-7-77-9-7-7777-777/1111111111111111-9\\~~-|
|-------7-7777-777------7-5-5555-555/9-9-9-9-9-9-9-9--7\\~~-|



INTERLUDE: E--A--E--A-B (2x)

Guitar1:

|-7---------------------------------|-12-11-12--7-9-7--0-2-4-0--5-4-0-4--5/7-|
|---10-9-10--9-7--------------------|----------------------------------------|
|----------------9--8---------------|----------------------------------------|
|---------------------9-7-----------|----------------------------------------|
|-------------------------9-7/(12)~-|----------------------------------------|
|-----------------------------------|----------------------------------------|

|-7---------------------------------|-12-9-11-7-12-11--0-7-4-0--5-4--0-2/(12)~-|
|---10-9-10--9-7--------------------|------------------------------------------|
|----------------9--8---------------|------------------------------------------|
|---------------------9-7-----------|------------------------------------------|
|-------------------------9-7/(12)~-|------------------------------------------|
|-----------------------------------|------------------------------------------|

Guitar2:

|--------------------------------------|
|--------------------------------------|
|-9999-99-----------9999-99------------|
|-9999-99-7-777-777-9999-99-7-77-9-999-|
|-7777-77-7-777-777-7777-77-7-77-9-999-|
|---------5-555-555---------5-55-7-777-|



VERSE3: --------------------------------------------------

REFRAIN3: -------------------------------------------------

CHORUS2: Repeat 2x

Guitar1:

|-------------------------------------|	
|-------------------------------------|	
|-999999-14-13-11-9-------------------| 2x	
|-999999-14-13-11-9-77777-9-9999-999--|	
|-777777-12-11-9--7-77777-9-9999-999--|	
|-------------------55555-7-7777-777--|

|----------------------------------------------------------------|
|----------------------------------------------------------------|
|-66666------------9-99------------------------------------------|
|-66666-9-9999-999-9-99-9-7-7777-777/1111111111111111-9-9999-999-|
|-44444-9-9999-999-7-77-9-7-7777-777/1111111111111111-9-9999-999-|
|-------7-7777-777------7-5-5555-555/9-9-9-9-9-9-9-9--7-7777-777-|

Guitar2:

|-------------------------------------|	
|-------------------------------------|
|-99999999999999999-------------------| 2x
|-99999999999999999-77777-9-9999-999--|
|-77777777777777777-77777-9-9999-999--|	
|-------------------55555-7-7777-777--|

|----------------------------------------------------------------|
|----------------------------------------------------------------|
|-66666------------9-99------------------------------------------|
|-66666-9-9999-999-9-99-9-7-7777-777/1111111111111111-9-9999-999-|
|-44444-9-9999-999-7-77-9-7-7777-777/1111111111111111-9-9999-999-|
|-------7-7777-777------7-5-5555-555/9-9-9-9-9-9-9-9--7-7777-777-|



OUTRO1: E-A-C#m-B (2x)

Guitar1:

|-------------------------------------------------------------------------------------------|
|-------------------------------------------------------------------------------------------|
|-99-8-99/11-9-8-999/13-1313-11-9/1414141414-131313-1111-9-8-9-99-11-9-99/13-13/11-9-11\\~~-|
|-xx-x-xx/xx-x-x-xxx/xx-xxxx-xx-x/xxxxxxxxxx-xxxxxx-xxxx-x-x-x-xx-xx-x-xx/xx-xx/xx-x-xx\\~~-|
|-77-6-77/9--7-6-777/11-1111-9--7/1212121212-111111-9-9--7-6-7-77-9--7-77/11-11/9--7-9-\\~~-|
|-------------------------------------------------------------------------------------------|

Guitar2:

|---------------------------|
|---------------------------|
|-99999-------66666---------| 2x
|-99999-77777-66666-9999999-|
|-77777-77777-44444-9999999-|
|-------55555-------7777777-|



OUTRO2: E-A-C#m-B (2x)

Guitar1:

|-12-11-12--7-9-7--0-2-4-0--5-4-0-5--7/12-|-12-11-12--7-9-7--0-2-4-0--5-4-0-2-----|
|-----------------------------------------|-----------------------------------4/5-|
|-----------------------------------------|---------------------------------------|
|-----------------------------------------|---------------------------------------|
|-----------------------------------------|---------------------------------------|
|-----------------------------------------|---------------------------------------|

|-12-11-12--7-9-7--0-2-4-0--5-4-0-5--7/12-|-12-9-11-7-12-11--0-7-4-0--5-4-0-2---------|
|-----------------------------------------|-----------------------------------4/5-5~~-|
|-----------------------------------------|-------------------------------------------|
|-----------------------------------------|-------------------------------------------|
|-----------------------------------------|-------------------------------------------|
|-----------------------------------------|-------------------------------------------|

Guitar 2:

|---------------------|
|---------------------|
|-999x------66xx------| 4x then ends in E
|-999x-77xx-66xx-9999-|
|-777x-77xx-44xx-9999-|
|------55xx------7777-|



..atlast tapos na rin..hehe..palagay ko 95% na ring accurate ang tab na 'to....
uhm, paki-rate rin pala..pinaghirapan ko 'to eh..hehe!!:D

------------------------------------------------------------------------------------------------
thnx to:

     > Senthyx Band
          - jo
          - randz
          - andy
          - pauz

     > SenthyX Zone (SXZ)
Tap to rate this tab
 
# A B C D E F G H I J K L M N O P Q R S T U V W X Y Z