Parokya Ni Edgar - Sorry Na tab

SONG: Sorry na
BAND: parokya ni edgar

SOLO part:
pasok guitar1 pag tapos ng guitar2
GTR1:
E|----------2h3p2-----|
B|-----3----------3---|
G|---2---2----------2-|
D|-0------------------|
A|--------------------|
e|--------------------|

GTR2:
E|-------------------------|
B|-------------------------|
G|-------------------------|
D|-------------------------|
A|-------------------------|
e|-0--0-2--2-4--4-5--7p6h7-|

pasok naman guitar2 pag tapos ng guitar1, parang alternate lng sila tapos sabay na pag 
tapos at chords na ang guitar1
GTR2
E|-------------------------|-11h10p11-17--10\8-|
B|-0-1-3~--0-1-3-3~---3-6~-|-------------------|
G|-------------------------|-------------------|
D|-------------------------|-------------------|
A|-------------------------|-------------------|
e|-------------------------|-------------------|

E|---------------------------|
B|-0-1-3~--0-1-3-3~---3h4-6~-|
G|---------------------------|
D|---------------------------|
e|---------------------------|

datz ol
tabbed by:no5IMBA
Tap to rate this tab
 
# A B C D E F G H I J K L M N O P Q R S T U V W X Y Z