Parokya Ni Edgar - Halaga tab

e|-------10-12-----14-15-14-12-14-------------17--15-14-15-14----14-------------------|
B|-10-12--------------------------15--------------------------15----15s17--15-14-15---|
G|-----------------------------------14----14-----------------------------------------|
D|------------------------------------------------------------------------------------|
A|------------------------------------------------------------------------------------|
E|------------------------------------------------------------------------------------|

e|-----0-2-3-2-0-2---------5--3-2-3-2---2------------------------------------|
B|---3-------------3------------------3---3s5--3-2-3-------------------------|
G|-2-----------------2---2---------------------------------------------------|
D|---------------------------------------------------------------------------|
A|---------------------------------------------------------------------------|
E|---------------------------------------------------------------------------|

s-slide
Tap to rate this tab
 
# A B C D E F G H I J K L M N O P Q R S T U V W X Y Z