Parokya Ni Edgar - Pangarap Lang Kita tab

Pangarap Lang Kita by Parokya Ni Edgar and Happee Sy

dito hindi kailangan ng capo...kaya mas marami makakagawa at madali lng..^^

Intro:

e#|------------------|
B#|------------------|
G#|-----6---8--------|
D#|---6---8----------|(2x)
A#|-4---6------8-----|
E#|------------------|

e#|------------------------------------------------|
B#|------------------------------------------------|
G#|-----6---8----------------6---8-----------------|
D#|---6---8----------------6---8-------------------|
A#|-4---6-------------5--4---6-----8---------------|
E#|-----------4--3--1------------------------------|
Verse 1:

e#|------------------|
B#|------------------|
G#|-----6---8---10---|
D#|---6---8---10-----|(3x)
A#|-4---6---8--------|
E#|------------------|

e#|-----------------0|
B#|---------------0--|
G#|-----6---8--10----|
D#|---6---8--10------|
A#|-4---6---8--------|
E#|------------------|

refrain:

e#|------------------|
B#|------------------|
G#|-----6---8--------|
D#|---6---8----------|(2x)
A#|-4---6------8-----|
E#|------------------|

e#|------------------------------------------------|
B#|------------------------------------------------|
G#|-----6---8----------------6---8-----------------|
D#|---6---8----------------6---8-------------------|
A#|-4---6-------------5--4---6-----8---------------|
E#|-----------4--3--1------------------------------|
          

======paulit-ulit lng 2 sa lhat ng verse at chorus=====


haha..hello po sa II-olive ^^ at sa lhat n rin 
                                                             03/08/11
                                                    ladees_colonel@yahoo.com
Tap to rate this tab
 
# A B C D E F G H I J K L M N O P Q R S T U V W X Y Z