Song name
# A B C D E F G H I J K L M N O P Q R S T U V W X Y Z

Parokya Ni Edgar - Reunion Panahon Ng Kasiyahan tab

                                       Reunion
                                   Parokya Ni Edgar

Tabber: Vin 


-99% accurate wahaha .. 
1st ko lng gumawa nang gn2 kea xenxa na kung sa tingin nio mali 
pero  sa tingin ko tama na nmn ung pag kakapa ko sana magustuhan nui .. 
Lolz ..  


Intro:

E-----------------------------------------------|
A-----------------------------------------------|
D-----------------------------------------------|
G-----------------------------------------------|
B-10-10--12------------12--10---------12-12-10--|
e-----------999-9-10-9--------12-10-9-----------|


 
 -----------------------------------------------|\  
 -----------------------------------------------| \                
 -----------------------------------------------|  \2x
 -----------------------------------------------|  /
 -10-10--12----------12-10-12-14-12-10----------| /                               
 ----------999-9-10-9---------------------------|/






E-------------------------|\
A-------------------------| \
D-------------------------|  \2x
G-------------------------|  /
B-7h9-7----12--10--9--10--| /
e-------------------------|/





                                         -END-
Tap to rate this tab
 
# A B C D E F G H I J K L M N O P Q R S T U V W X Y Z